KTSO-DOC.RU -

promsnabob.ru airone iris 400



 



-
- , ,
-
-
-
-
-
-
-
-
-
-
-
-
- , ,
-
-
-
-
-
-
-
-
-
-
-




--------------------------------- ---------------------------------


--------------------------------------------------------------------------------------

19091-2012.pdf [413 KB]
31817.1.1-2012.pdf [161 KB]
32320-2013.pdf [1 MB]
32321-2013.pdf [1 MB]
33484-2015.pdf [178 KB]
34025-2016.pdf [3 MB]
4.188-85.doc [384 KB]
5089-2011.pdf [8 MB]
50658-94 (2001).doc [60 KB]
50659-2012.pdf [484 KB]
50659-94 (2001).doc [57 KB]
50775-95.doc [128 KB]
50776-95.doc [161 KB]
50777-2014.pdf [2 MB]
50777-95.doc [339 KB]
50862-2012.pdf [571 KB]
50941-96 (1998).doc [42 KB]
51053-2012.pdf [4 MB]
51110-97.doc [43 KB]
51111-97.doc [23 KB]
51112-97 (1998).doc [32 KB]
51113-97.doc [33 KB]
51221-98.doc [47 KB]
51222-98.doc [44 KB]
51223-98.doc [26 KB]
51224-98.doc [87 KB]
51241-2008.pdf [269 KB]
51241-98.doc [310 KB]
51558-2000.doc [169 KB]
51558-2008.pdf [355 KB]
51558-2014.pdf [401 KB]
51583-2014.pdf [378 KB]
52434-2005.pdf [718 KB]
52435-2005.pdf [320 KB]
52436-2005.pdf [204 KB]
52551-2006.pdf [213 KB]
52650-2006.pdf [384 KB]
52651-2006.pdf [983 KB]
52860-2007.pdf [320 KB]
52933-2008.pdf [1 MB]
53113.1-2008.pdf [87 KB]
53114-2008.pdf [273 KB]
53131-2008.pdf [598 KB]
53362-2009.pdf [823 KB]
53560-2009.pdf [259 KB]
53702-2009.pdf [3 MB]
53703-2009.pdf [1 MB]
53704-2009.pdf [208 KB]
53705-2009.pdf [563 KB]
54101-2010.pdf [622 KB]
54126-2010.pdf [313 KB]
54455-2011.pdf [1 MB]
54830-2011.pdf [945 KB]
54831-2011.pdf [118 KB]
54832-2011.pdf [271 KB]
54906-2012.pdf [493 KB]
54939-2012.pdf [169 KB]
55017-2012.pdf [558 KB]
55148-2012.pdf [783 KB]
55150-2012.pdf [446 KB]
56035-2014.pdf [179 KB]
56102.1-2014.pdf [1 MB]
56103-2014.pdf [418 KB]
57383-2017.pdf [103 KB]
57561-2017.doc [1 MB]
57562-2017.doc [1 MB]
- 18045-2008.pdf [36 MB]

------------------------------------------------------------------------------------

.doc [65 KB]
.doc [73 KB]
. . .doc [123 KB]

----------------------------------------------------------------------------

78.36.001-2014.pdf [484 KB]

------------------------------------------------------------------------------------

2015.pdf [1 MB]
2015.pdf [3 MB]
2014.pdf [1 MB]
2015.pdf [732 KB]
2015.pdf [1 MB]
2013.pdf [1 MB]
2011.pdf [2 MB]
2014.pdf [528 KB]
2013.pdf [3 MB]
2012.pdf [522 KB]
2014.pdf [15 MB]
, 2014.pdf [495 KB]
2012.pdf [3 MB]
, 2014.pdf [3 MB]
2014.pdf [3 MB]
2014.pdf [1 MB]
2014.pdf [5 MB]
2014.pdf [5 MB]
2014.pdf [5 MB]
2014.pdf [3 MB]
2012.pdf [2 MB]

----------------------------------------------------------------------------------

, 2008.pdf [38 MB]
2017.pdf [451 KB]
78.145-93.doc [3 MB]
005-2018.pdf [2 MB]
78.36.001-99.doc [34 MB]
78.36.002-2012.pdf [2 MB]
78.36.002-99.doc [32 KB]
78.36.003-2013.pdf [976 KB]
78.36.003-99.doc [71 KB]
78.36.004-2014.pdf [2 MB]
78.36.006-99.doc [87 KB]

------------------------------------------------------------------------------

2017.pdf [1 MB]
2017.pdf [556 KB]
, 2017.pdf [936 KB]
-3.2.19.02-05.doc [413 KB]
-3.2.21-04.doc [156 KB]
060-2017.pdf [2 MB]
061-2017.pdf [698 KB]
062-2017.pdf [258 KB]
063-2017.pdf [794 KB]
064-2017.pdf [1 MB]
065-2017.pdf [2 MB]
066-2017.pdf [395 KB]
067-2017.pdf [1 MB]
068-2017.pdf [5 MB]
069-2017.pdf [1 MB]
070-2017.pdf [2 MB]
071-2017.pdf [993 KB]
072-2018.pdf [1 MB]
073-2018.pdf [2 MB]
074-2018.pdf [5 MB]
075-2018.pdf [435 KB]
076-2018.pdf [1 MB]
077-2019.pdf [310 KB]
078-2019.pdf [592 KB]
079-2019.pdf [201 KB]
080-2019.pdf [575 KB]
081-2019.pdf [1 MB]
082-2019.pdf [2 MB]
78.36.001-99.doc [285 KB]
78.36.002-2010.pdf [3 MB]
78.36.002-99.doc [844 KB]
78.36.003-99.doc [1 MB]
78.36.004-99.doc [1 MB]
78.36.005-2011.pdf [1 MB]
78.36.005-99.doc [5 MB]
78.36.006-99.doc [11 MB]
78.36.007-99.doc [423 KB]
78.36.008-99.doc [1011 KB]
78.36.009-99.doc [1 MB]
78.36.010-2000.doc [1 MB]
78.36.011-2000.doc [928 KB]
78.36.012-2001.doc [4 MB]
78.36.013-2002.doc [576 KB]
78.36.014-2003.doc [378 KB]
78.36.015-2003.doc [200 KB]
78.36.017-2010.doc [1 MB]
78.36.017-2012.pdf [3 MB]
78.36.018-2011.doc [1 MB]
78.36.019-2012.pdf [2 MB]
78.36.020-2012.pdf [1 MB]
78.36.021-2012.pdf [412 KB]
78.36.022-2012.pdf [2 MB]
78.36.023-2012.pdf [401 KB]
78.36.024-2012.pdf [361 KB]
78.36.025-2012.pdf [603 KB]
78.36.026-2012.pdf [5 MB]
78.36.027-2012.pdf [13 MB]
78.36.028-2012.pdf [3 MB]
78.36.029-2013.pdf [2 MB]
78.36.030-2013.pdf [7 MB]
78.36.031-2013.pdf [445 KB]
78.36.032-2013 1.pdf [920 KB]
78.36.032-2014 2.pdf [444 KB]
78.36.033-2013.pdf [1 MB]
78.36.034-2013.pdf [2 MB]
78.36.035-2013.pdf [1 MB]
78.36.036-2013.pdf [1 MB]
78.36.037-2013.pdf [356 KB]
78.36.038-2013.pdf [4 MB]
78.36.039-2014.pdf [309 KB]
78.36.040-2014.pdf [351 KB]
78.36.041-2014.pdf [3 MB]
78.36.042-2014.pdf [6 MB]
78.36.043-2014.pdf [914 KB]
78.36.044-2014.pdf [1 MB]
78.36.045-2014.pdf [4 MB]
78.36.046-2015.pdf [275 KB]
78.36.047-2015.pdf [284 KB]
78.36.048-2015.pdf [12 MB]
78.36.049-2015.pdf [5 MB]
78.36.050-2015.pdf [937 KB]
78.36.051-2015.pdf [6 MB]
78.36.052-2015.pdf [24 MB]
78.36.053-2015.pdf [20 MB]
78.36.054-2016.pdf [12 MB]
78.36.055-2016.pdf [2 MB]
78.36.056-2016.pdf [1 MB]
78.36.057-2016.pdf [2 MB]
78.36.058-2016.pdf [768 KB]
78.36.059-2016.pdf [19 MB]
2017.pdf [432 KB]
2017.pdf [720 KB]
2017.pdf [308 KB]
2017.pdf [1 MB]
2017.pdf [5 MB]
, 2017.pdf [2 MB]

---------------------------------- ----------------------------------

81-40.2006.doc [239 KB]
.doc [684 KB]
7.doc [20 MB]
25.952-90 ( 78.142-90).pdf [146 KB]
25.953-90.pdf [207 KB]
78.145-93.doc [222 KB]
78.146-93.doc [74 KB]
78.148-94.doc [170 KB]
78.36.002-2010.pdf [1 MB]
78.36.002-99.doc [148 KB]
78.36.003-2002.doc [364 KB]
78.36.004-2005.doc [110 KB]
78.36.005-2005.doc [148 KB]
78.36.006-2005.doc [1 MB]
95 10544-99.doc [96 KB]
132.13330.2011.pdf [156 KB]

---------------------------------------- ----------------------------------------

-2006.doc [436 KB]
-2007.pdf [838 KB]
78.36.002 - 2004.doc [343 KB]
78.36.004 - 2002.doc [315 KB]
-2010.pdf [642 KB]
-2012.pdf [711 KB]
-2014.pdf [644 KB]
-2015.pdf [3 MB]
-2017.pdf [799 KB]
-2019.pdf [1 MB]

------------------------------------- -------------------------------------

78.36.001-2014.pdf [1 MB]
78.36.002-2014.pdf [1 MB]
78.36.003-2014.pdf [1 MB]
78.36.004-2014.pdf [3 MB]
78.36.005-2014.pdf [2 MB]

--------------------------------------------------------------------------------

2008.pdf [280 KB]
2017.pdf [1 MB]
2010.pdf [290 KB]
2000.doc [311 KB]
78.36.001-99.doc [64 KB]
78.36.002-99.doc [101 KB]
78.36.004-2012.pdf [353 KB]
.doc [60 KB]

--------------------------------- ---------------------------------


------------------------------------------Aleph------------------------------------------


-----------------------------ABT-30, ABT-60, ABT-80, ABT-100-----------------------------

ABT-30, ABT-60, ABT-80, ABT-100.doc [555 KB]

--------------------------------PE-100T, PE-200T, PE-250T--------------------------------

PE-100T, PE-200T, PE-250T.doc [4 MB]

--------------------------------------PE-30T, PE-60T--------------------------------------

PE-30T, PE-60T.doc [6 MB]

------------------------------------------XC-1XT------------------------------------------

-1.doc [318 KB]

--------------------------------------XP-3Pi, XP-5Pi--------------------------------------

XP-3Pi, XP-5Pi.doc [643 KB]

--------------------------------------XP-44, XP-44T--------------------------------------

XP-44, XP-44T.doc [155 KB]

-------------------------------------------ATSN-------------------------------------------


---------------------------------------- SMDR-2----------------------------------------

SMDR-2.doc [2 MB]

----------------- SMDR-3 Server, SMDR-4 Server, SMDR-5 Server-----------------

SMDR-3 Server, SMDR-4 Server, SMDR-5 Server.doc [3 MB]

-------------------------------------------Crow-------------------------------------------


------------------------------------CAB-100T, CAB-150T------------------------------------

CAB-100T, CAB-150T.pdf [388 KB]

-------------------------------------CAB-15F, CAB-15S-------------------------------------

CAB-15F, CAB-15S.pdf [357 KB]

-------------------------------------CAB-30T, CAB-60T-------------------------------------

CAB-30T, CAB-60T.pdf [320 KB]

-------------------------------------CSB-60, CSB-200-------------------------------------

Installation instructions & User manual CSB-200.pdf [273 KB]
Installation instructions & User manual CSB-60.pdf [869 KB]
CSB-60, CSB-200.pdf [1 MB]

-------------------------------------------D&D-------------------------------------------

Installation instructions D&D.pdf [191 KB]
D&D. 11.05.2020.doc [285 KB]
D&D.pdf [162 KB]
D&D.pdf [9 MB]

------------------------------------------D-CAM------------------------------------------

D-CAM.doc [294 KB]

-----------------------------------------EDS-2000-----------------------------------------

EDS-2000 Rev. B.doc [4 MB]

-----------------------------------------EDS-3000-----------------------------------------

EDS-3000. 11.05.2020.doc [1013 KB]

----------------------------------------FW-GBDN-8F----------------------------------------

FW-GBDN-8F. 11.05.2020.doc [289 KB]

----------------------------------FW2-MAG-8F, FW2-MAG-9F----------------------------------

FW2-MAG-8F, FW2-MAG-9F. Rev. C.pdf [230 KB]

----------------------------------FW2-NEO-8F, FW2-NEO-9F----------------------------------

FW2-NEO-8F, FW2-NEO-9F. Rev. C.pdf [280 KB]

--------------------------FW2-SIREN2EXT-8-9F, FW2-SIREN2CP-8-9F--------------------------

FW2-SIREN2EXT-8-9F, FW2-SIREN2CP-8-9F. 2013.pdf [1 MB]

----------------------------------FW2-SMK-8F, FW2-SMK-9F----------------------------------

FW2-SMK-8F, FW2-SMK-9F. Rev. A.pdf [346 KB]

------------------------------------------GBD-II------------------------------------------

Installation instructions GBD-II.pdf [179 KB]
GBD-II.pdf [128 KB]

-----------------------------------------GBD-II D-----------------------------------------

GBD-II D. 11.05.2020.doc [6 MB]

-----------------------------------------GBD-PLUS-----------------------------------------

GBD-PLUS.doc [275 KB]
GBD-PLUS.pdf [3 MB]

------------------------------------------GENIUS------------------------------------------

Installation instructions GENIUS.pdf [231 KB]
GENIUS.pdf [169 KB]

---------------------------------------GENIUS PLUS---------------------------------------

GENIUS PLUS. 11.05.2020.doc [250 KB]

-------------------------------------GENIUS PLUS PET-------------------------------------

Installation instructions GENIUS PLUS PET.pdf [66 KB]

----------------------------------------Merlin Pro----------------------------------------

Installation instructions Merlin Pro.pdf [220 KB]

-------------------------------------Merlin Pro 2Way-------------------------------------

MMerlin Pro 2Way. 11.05.2020.pdf [1 MB]

------------------------------------------MH-10------------------------------------------

Installation instructions MH-10.pdf [186 KB]
MH-10.pdf [147 KB]

------------------------------------------MH-20------------------------------------------

MH-20.pdf [133 KB]

------------------------------------------MH-20N------------------------------------------

MH-20N.pdf [163 KB]

------------------------------------------MH-CRT------------------------------------------

MH-CRT.pdf [153 KB]

-------------------------------------MRX-220, MRX-300-------------------------------------

MRX-220, MRX-300.pdf [1 MB]

-----------------------------------------MRX-220N-----------------------------------------

MRX-220N.doc [687 KB]

-----------------------------------------MRX-300N-----------------------------------------

Installation instructions & User manual MRX-300N.pdf [82 KB]

-----------------------------------------MRX-800Q-----------------------------------------

Installation instructions MRX-800Q.pdf [79 KB]

------------------------------------------PW-UT------------------------------------------

Installation instructions PW-UT.pdf [7 KB]

--------------------------------------SH-PIRCAM-OUT--------------------------------------

Note SH-PIRCAM-OUT. 2019.pdf [234 KB]

-----------------------------------------SRDT-15-----------------------------------------

Installation instructions SRDT-15.pdf [410 KB]
SRDT-15.doc [343 KB]

-----------------------------------------SRP PLUS-----------------------------------------

SRP PLUS.doc [295 KB]

-----------------------------------------SRP-100-----------------------------------------

SRP-100.pdf [203 KB]

-------------------------------------SRP-200, SRP-300-------------------------------------

Installation instructions SRP 200, SRP 300.pdf [290 KB]
SRP 200, SRP 300.pdf [204 KB]

-----------------------------------------SRP-360-----------------------------------------

Installation instructions SRP-360.pdf [188 KB]
SRP-360.doc [113 KB]

-------------------------------------SRP-600, SRP-700-------------------------------------

Installation instructions SRP 600.pdf [116 KB]
SRP 600.pdf [312 KB]
SRP-600, SRP-700.pdf [143 KB]

----------------------------------------SRP-PET 2----------------------------------------

Installation instructions SRP-PET 2.pdf [209 KB]
SRP-PET 2.doc [523 KB]

----------------------------------------SRP-PET 4----------------------------------------

Installation instructions SRP-PET 4.pdf [217 KB]
SRP-PET 4.doc [554 KB]

------------------------------------------SRPG-1------------------------------------------

SRPG-1.doc [258 KB]

------------------------------------------SRPG-2------------------------------------------

SRPG-2.pdf [379 KB]

-----------------------------------------SRPG-2N-----------------------------------------

Installation instructions SRPG-2N.pdf [77 KB]

----------------------------------------SRX-1000M----------------------------------------

Installation instructions SRX-1000M.pdf [214 KB]

-----------------------------------------SRX-360-----------------------------------------

Installation instructions SRX-360.pdf [177 KB]

----------------------------------------SWAN 1000----------------------------------------

Installation instructions SWAN 1000.pdf [632 KB]
SWAN 1000. 11.05.2020.doc [226 KB]
SWAN 1000.pdf [3 MB]

-----------------------------------------SWAN PGB-----------------------------------------

SWAN PGB. 710757 REV.B.pdf [2 MB]
SWAN PGB.pdf [344 KB]
SWAN PGB CURTAIN LENS.pdf [4 MB]
SWAN PGB.pdf [4 MB]

-----------------------------------------SWAN PIR-----------------------------------------

SWAN PIR.pdf [387 KB]

----------------------------------------SWAN QUAD----------------------------------------

SWAN Quad. 11.05.2020.doc [1 MB]
SWAN Quad.doc [270 KB]
SWAN QUAD CURTAIN LENS.pdf [3 MB]
SWAN QUAD.pdf [3 MB]

-------------------------------------SWAN QUAD PET 3-------------------------------------

SWAN QUAD PET 3.pdf [3 MB]

------------------------------------------TL-360------------------------------------------

Installation instructions TL-360.pdf [193 KB]

----------------------------------------TL-Xpress----------------------------------------

Installation instructions TL-Xpress.pdf [277 KB]

-----------------------------------------TLC-360-----------------------------------------

TLC-360.doc [258 KB]

------------------------------------------TLC-S------------------------------------------

Installation Instructions TLC-S.pdf [198 KB]

-----------------------------------------VIB 2000-----------------------------------------

VIB 2000.doc [604 KB]

------------------------------------------G.S.N------------------------------------------


----------------------------------------ACS-1000R----------------------------------------

ACS-1000R. 11.05.2020.pdf [151 KB]

-----------------------------------------ACS-101-----------------------------------------

ACS-101. 11.05.2020.pdf [112 KB]

-----------------------------------------ACS-101R-----------------------------------------

ACS-101R. 11.05.2020.pdf [175 KB]

-----------------------------------------ACS-102-----------------------------------------

ACS-102. 11.05.2020.pdf [132 KB]

-----------------------------------------ACS-102R-----------------------------------------

ACS-102R. 11.05.2020.pdf [188 KB]

----------------------------------------Patrol-101----------------------------------------

Patrol-101. Rev.A.pdf [1 MB]

-------------------------------------Patrol-101 Ver.2-------------------------------------

Patrol-101 Ver.2.pdf [526 KB]

--------------------------------------Patrol-103PET--------------------------------------

Patrol-103PET. Rev.A.pdf [458 KB]

--------------------------------------Patrol-105PET--------------------------------------

Patrol-105PET. Rev.A.pdf [461 KB]

--------------------------------------Patrol-201PET--------------------------------------

Patrol-201PET. Rev.B.pdf [609 KB]
Patrol-201PET.pdf [503 KB]

----------------------------------------Patrol-301----------------------------------------

Patrol-301. Rev.A.pdf [316 KB]

--------------------------------------Patrol-401PET--------------------------------------

Patrol-401PET. Rev.A.pdf [624 KB]
Patrol-401PET.pdf [623 KB]

--------------------------------------Patrol-403PET--------------------------------------

Patrol-403PET. Rev.A.pdf [417 KB]

----------------------------------------Patrol-501----------------------------------------

Patrol-501. Rev.A.pdf [365 KB]
Patrol-501.pdf [363 KB]

----------------------------------------Patrol-601----------------------------------------

Patrol-601. Rev.A.pdf [321 KB]

----------------------------------------Patrol-701----------------------------------------

Patrol-701. Rev.B.pdf [590 KB]
Patrol-701.pdf [490 KB]

----------------------------------------Patrol-703----------------------------------------

Patrol-703. Rev.A.pdf [403 KB]

----------------------------------------Patrol-801----------------------------------------

Patrol-801. Rev.B.pdf [497 KB]
Patrol-801.pdf [498 KB]

--------------------------------------Patrol-801PET--------------------------------------

Patrol-801PET. Rev.A.pdf [500 KB]

----------------------------------------Patrol-803----------------------------------------

Patrol-803. Rev.A.pdf [452 KB]

--------------------------------------Patrol-803PET--------------------------------------

Patrol-803PET. Rev.A.pdf [458 KB]

----------------------------------------Patrol-901----------------------------------------

Patrol-901. Rev.A.pdf [605 KB]
Patrol-901.pdf [559 KB]

----------------------------------------Patrol-903----------------------------------------

Patrol-903. Rev.A.pdf [407 KB]

----------------------------------------Patrol-USL----------------------------------------

Patrol-USL. Rev.A.pdf [698 KB]

----------------------------------------Patrol-USM----------------------------------------

Patrol-USM. Rev.A.pdf [768 KB]

----------------------------------------Patrol-USR----------------------------------------

Patrol-USR. Rev.A.pdf [360 KB]

-----------------------------------------UBL-1110-----------------------------------------

UBL-1110.pdf [292 KB]

-----------------------------------------Geoquip-----------------------------------------


----------------------------------------CentrAlert----------------------------------------

Operation Manual CentrAlert.pdf [570 KB]
CentrAlert. 05.01.2006 .pdf [4 MB]

-----------------------------------------Defensor-----------------------------------------

Defensor. 2. 09.09.1997 .pdf [923 KB]
GD4500. 0. 01.09.1997 .pdf [280 KB]
GD5000. 1. 03.01.2006 .pdf [317 KB]
GQ6ZA, GQ12ZA, GQ24ZA. 1. 01.11.1994 .pdf [420 KB]
.pdf [2 MB]

----------------------------------------Guardwire----------------------------------------

GW390-1 CONTROL CONSOLE AND GW390-3C INTERFACE OPERTION MANUAL. 01.02.1999 .pdf [208 KB]
GW400K SENSOR CABLE MANUAL FOR PERIMETER FENCE APPLICATIONS. 12.04.1995 .pdf [711 KB]
GW400k SENSOR MANUAL FOR BUILDING APPLICATIONS. 19.11.1999 .pdf [584 KB]
GW450 ANALYSER OPERATION MANUAL. 14.10.1999 .pdf [229 KB]
GW475 ANALYSER OPERATION MANUAL. 28.09.1999 .pdf [180 KB]
GW4OOk SERIES MAINTENANCE MANUAL. 28.09.1999 .pdf [170 KB]
GW500 ANALYSER OPERATION MANUAL. 03.01.2006 .pdf [206 KB]

---------------------------------------Impactor 400---------------------------------------

IMPACTOR ALPHA INSTALLATION AND OPERATION MANUAL. 01.12.2005 .pdf [382 KB]
Impactor 400. 1. 26.03.1999 .pdf [1 MB]

----------------------------------------MicrAlert----------------------------------------

MICRALERT SUMMARY INFORMATION. 2004 .pdf [370 KB]
OPERATION MANUAL MicrAlert. 1. 20.07.2005 .pdf [482 KB]
GCMMB-24. 1. 20.07.2005 .pdf [537 KB]

------------------------------------------RAFID------------------------------------------

RAFID SPECIFICATION, INSTALLATION AND COMMISSIONING GUIDE FOR GROUND BASED SYSTEMS. 29.08.2001 .pdf[389 KB]
RAFID.pdf [1 MB]

---------------------------------------GPS Standard---------------------------------------


--------------------------------------PGPS Plus-1-4--------------------------------------

PGPS Plus-1-4. 2006 .pdf [831 KB]

-----------------------------------------PPS Plus-----------------------------------------

PPS Plus. 2006 .pdf [1 MB]

-------------------------------------------RFC-------------------------------------------

RFC. , 2005 .pdf [1 MB]

----------------------------------------Honeywell----------------------------------------


-------------Intellisense DT-420, Intellisense DT-435, Intellisense DT-450-------------

Intellisense DT-420, -435, -450. 04.08.1998 .pdf [166 KB]

---------------------------------Intellisense DT-6360STC---------------------------------

Intellisense DT-6360STC. 23.09.1998 .pdf [278 KB]

----------------------Intellisense DT-640STC, Intellisense DT-660STC----------------------

Intellisense DT-640STC, -660STC. 24.07.1998 .pdf [136 KB]

-------------------------Intellisense DT-700, Intellisense DT-706-------------------------

Intellisense DT-700, -706. 27.05.1998 .pdf [105 KB]

---------------------------------Intellisense DT-7235T EU---------------------------------

Intellisense DT-7235T EU. 01.02.2002 .pdf [132 KB]

---------------------------------Intellisense DT-7435T EU---------------------------------

Intellisense DT-7435T EU. 01.02.2002 .pdf [174 KB]

--------------------------------Intellisense DT-7450(C) EU--------------------------------

Intellisense DT-7450(C) EU. 01.02.2002 .pdf [174 KB]

---------------------------------Intellisense DT-7550C EU---------------------------------

Intellisense DT-7550C EU. 01.02.2002 .pdf [169 KB]

-------------------------Intellisense DT-900, Intellisense DT-906-------------------------

Intellisense DT-900, Intellisense DT-906. 03.03.1998 .pdf [192 KB]

-----------------------------------Intellisense FG-1015-----------------------------------

Intellisense FG-1015. 13.01.1999 .pdf [80 KB]

----------------------------------Intellisense FG-1025Z----------------------------------

Intellisense FG-1025Z. 24.06.1998 .pdf [254 KB]

-----------------------------------Intellisense FG-730-----------------------------------

Intellisense FG-730. 07.07.1998 .pdf [114 KB]

----------------------------------Intellisense FIR-5030----------------------------------

Intellisense FIR-5030. 21.05.1998 .pdf [134 KB]

------------------------Intellisense IS-215, Intellisense IS-215T------------------------

Intellisense IS-215, -215T. 30.10.2000 .pdf [132 KB]

------------------------Intellisense IS-220, Intellisense IS-220T------------------------

Intellisense IS-220, -220T. 25.10.2000 .pdf [132 KB]

-----------------------Intellisense IS-2260, Intellisense IS-2260T-----------------------

Intellisense IS-2260, -2260T. 19.02.2002 .pdf [242 KB]

----------------Intellisense TB-20, Intellisense TB-40, Intellisense TB-60----------------

Intellisense TB-20, -40, -60. 1998 .pdf [217 KB]

-------------------------Intellisense TB-360, Intellisense TB-530-------------------------

Intellisense TB-360, Intellisense TB-530.pdf [99 KB]

-----------------------------------Intellisense XJ-413T-----------------------------------

Intellisense XJ-413T. 21.09.1998 .pdf [96 KB]

-----------------------------------Intellisense XJ-450T-----------------------------------

Intellisense XJ-450T. 21.09.1998 .pdf [93 KB]

------------------------Intellisense -550, Intellisense -550T------------------------

Intellisense -550, -550T. 22.07.1998 .pdf [94 KB]

-----------------------Intellisense -760T, Intellisense -760TVB-----------------------

Intellisense -760T, -760TVB. 14.01.1999 .pdf [235 KB]
Intellisense -760T, -760TVB. 27.03.1998 .pdf[236 KB]

-----------------------------------------PRO3200-----------------------------------------

PRO32R2. 11.05.2020.pdf [833 KB]
PRO32IC. 11.05.2020.pdf [1 MB]

------------------------------------------PW6000------------------------------------------

PW6K1R2. 11.05.2020.pdf [1 MB]
PW6K1IC. .A. 2012.pdf [965 KB]

------------------------------------------PW6101------------------------------------------

PW6K1ICE. .. 2011.pdf [1 MB]
PW6K1R1E. .. 2011.pdf [781 KB]

------------------------------------------Optex------------------------------------------


---------------------AX-100PLUS, AX-200PLUS, AX-100ALPHA, AX-200ALPHA---------------------

AX-100PLUS, AX-200PLUS, AX-100ALPHA, AX-200ALPHA. 1.pdf [627 KB]
AX-100PLUS, AX-200PLUS, AX-100ALPHA, AX-200ALPHA. 2.pdf [7 MB]
AX-100PLUS, AX-200PLUS, AX-100ALPHA, AX-200ALPHA.pdf [311 KB]

------------------------------------AX-100S, AX-100SR------------------------------------

AX-100S, AX-100SR.pdf [413 KB]
AX-100S, AX-100SR.pdf [289 KB]

-----------------------------------AX-100TFR, AX-200TFR-----------------------------------

AX-100TFR, AX-200TFR. .pdf [2 MB]
AX-100TFR, AX-200TFR. 11.05.2020.pdf [4 MB]

------------AX-250PLUS, AX-500PLUS, AX-350MKII, AX-650MKII, AX-350TF, AX-650TF------------

Installation Manual AX-250PLUS, AX-500PLUS, AX-350TF, AX-650TF. 1.pdf[1 MB]
Installation Manual AX-250PLUS, AX-500PLUS, AX-350TF, AX-650TF. 2.pdf[2 MB]
AX-250PLUS, AX-500PLUS, AX-350MKII, AX-650MKII. 1.pdf [1 MB]
AX-250PLUS, AX-500PLUS, AX-350MKII, AX-650MKII. 2.pdf [12 MB]
AX-250PLUS, AX-500PLUS.pdf [183 KB]
AX-350MKII, AX-650MKII.pdf [430 KB]
AX-350TF, AX-650TF. .pdf [1 MB]
AX-250PLUS, AX-500PLUS, AX-350TF, AX-650TF. 11.05.2020.pdf [6 MB]

----------------AX-350DH MK III, AX-650DH MK III, AX-350DH TS, AX-350DH BT----------------

AX-350DH MK III, AX-650DH MK III, AX-350DH TS, AX-350DH BT. 1.pdf[641 KB]
AX-350DH MK III, AX-650DH MK III, AX-350DH TS, AX-350DH BT. 2.pdf[1 MB]
AX-350DH, AX-650DH.pdf [491 KB]

-------------------------------------AX-70T, AX-130T-------------------------------------

Optex AX-70T, AX-130T.pdf [689 KB]
Optex AX-70T, AX-130T.pdf [227 KB]

---------------------AX-70TN, AX-130TN, AX-200TN, AX-100TF, AX-200TF---------------------

Installation Manual AX-70TN, -130TN, -200TN, -100TF, -200TF. 1.pdf[699 KB]
Installation Manual AX-70TN, -130TN, -200TN, -100TF, -200TF. 2.pdf [3 MB]
AX-70TN, AX-130TN, AX-200TN, AX-100TF, AX-200TF. 11.05.2020.pdf [2 MB]
AX-70TN, -130TN, -200TN, -100TF, -200TF. Eng.pdf [371 KB]

----------------------------------------BX-100PLUS----------------------------------------

BX-100PLUS. 1.pdf [457 KB]
BX-100PLUS. 2.pdf [660 KB]
BX-100PLUS. .pdf [56 MB]
BX-100PLUS. 1.pdf [299 KB]
BX-100PLUS. 2.pdf [374 KB]

------------------------------------------BX-80N------------------------------------------

BX-80N. .pdf [41 MB]
BX-80N. 11.05.2020.pdf [786 KB]
BX-80N.pdf [463 KB]
BX-80N.pdf [273 KB]

-----------------------------------------BX-80NR-----------------------------------------

BX-80NR. .pdf [36 MB]
BX-80NR. 11.05.2020.pdf [2 MB]
BX-80NR.pdf [2 MB]

--------------------------------------BXS-R, BXS-RAM--------------------------------------

Installation instructions BXS-R, BXS-RAM. 2017.pdf [8 MB]

--------------------------------------BXS-ST, BXS-AM--------------------------------------

Installation instructions BXS-ST, BXS-AM. 2017.pdf [8 MB]

---------------------------------CDX-AM, CDX-NAM, CDX-DAM---------------------------------

CDX-AM, CDX-NAM, CDX-DAM. 2010.pdf [2 MB]

--------------------------------------CX-50, CX-50AM--------------------------------------

CX-50, CX-50AM.pdf [409 KB]

--------------------------------CX-502, CX-502V, CX-502 AM--------------------------------

CX-502, CX-502V, CX-502 AM. 1.pdf [659 KB]
CX-502, CX-502V, CX-502 AM. 2.pdf [3 MB]
CX-502, CX-502V, CX-502 AM. .pdf [31 MB]
CX-502, CX-502 AM. 1.pdf [155 KB]
CX-502, CX-502 AM. 2.pdf [836 KB]

-------------------------------------CX-702, CX-702V-------------------------------------

CX-702, CX-702V. 1.pdf [167 KB]
CX-702, CX-702V. 2.pdf [382 KB]
CX-702, CX-702V. .pdf [26 MB]

------------------------------------CX-702RS, CX-702S------------------------------------

CX-702RS, CX-702S. .pdf [30 MB]

------------------------------------------CX-70M------------------------------------------

CX-70M.pdf [218 KB]

----------------------------DX-40, DX-60, DX40PLUS, DX-60PLUS----------------------------

DX-40, DX-60, DX40PLUS, DX-60PLUS. 1.pdf [672 KB]
DX-40, DX-60, DX40PLUS, DX-60PLUS. 2.pdf [1 MB]
DX-40, DX-60, DX40PLUS, DX-60PLUS. .pdf [29 MB]
DX-40, DX-60, DX40PLUS, DX-60PLUS.pdf [186 KB]

------------------------------------------EX-35R------------------------------------------

EX-35R. .pdf [16 MB]

------------------------------------------EX-35T------------------------------------------

EX-35T. .pdf [16 MB]
EX-35T.pdf [427 KB]
EX-35T.pdf [208 KB]

-------------------------------------FMX-ST, FMX-DST-------------------------------------

FMX-ST, FMX-DST. 11.05.2020.pdf [704 KB]

--------------------------------------FTN-R, FTN-RAM--------------------------------------

FTN-R, FTN-RAM. .pdf [2 MB]
FTN-R, FTN-RAM. 11.05.2020.pdf [5 MB]

--------------------------------------FTN-ST, FTN-AM--------------------------------------

FTN-ST, FTN-AM. .pdf [1 MB]
FTN-ST, FTN-AM. 11.05.2020.pdf [3 MB]

---------------------------FX-360, FX-360L, FX-360L(P), FX-360S---------------------------

FX-360, FX-360L, FX-360L(P), FX-360S. 1.pdf [174 KB]
FX-360, FX-360L, FX-360L(P), FX-360S. 2.pdf [373 KB]
FX-360, FX-360L, FX-360L(P), FX-360S. .pdf [16 MB]
FX-360.pdf [162 KB]

------------------------------FX-40, FX-40L, FX-40D, FX-40DL------------------------------

FX-40, FX-40L, FX-40D, FX-40DL. .pdf [20 MB]

---------------------------FX-50QZ, FX-50QZL, FX-50SQ, FX-50SQL---------------------------

FX-50QZ, FX-50QZL, FX-50SQ, FX-50SQL. 1.pdf [176 KB]
FX-50QZ, FX-50QZL, FX-50SQ, FX-50SQL. 2.pdf [655 KB]
FX-50QZ, FX-50QZL, FX-50SQ, FX-50SQL.pdf [464 KB]

-----------------------------------------GX-252T-----------------------------------------

GX-252T.pdf [490 KB]

----------------------------HX-40, HX-40AM, HX-40DAM, HX-40RAM----------------------------

Installation Instructions HX-40, HX-40AM No.59-1501-2.pdf [1 MB]
Installation Instructions HX-40, HX-40AM, HX-40DAM NO.59-1501-3.pdf [2 MB]
Installation Instructions HX-40RAM No.59-1547-2.pdf [2 MB]
HX-40, HX-40AM, HX-40RAM. 11.05.2020.pdf [5 MB]
HX-40, HX-40AM, HX-40RAM.pdf [5 MB]
HX-40, HX-40AM. .pdf [572 KB]

-------------------------------------HX-80N, HX-80NAM-------------------------------------

HX-80N, HX-80NAM. .pdf [2 MB]
HX-80N, HX-80NAM. 11.05.2020.pdf [5 MB]

----------------------------------------HX-80NRAM----------------------------------------

HX-80NRAM. 20.08.2010.pdf [4 MB]
HX-80NRAM. .pdf [2 MB]

------------------------------------------KX-08------------------------------------------

KX-08. 11.05.2020.pdf [391 KB]

------------------------------------LRP 100Q, LRP 5030------------------------------------

LRP 100Q, LRP 5030. 1.pdf [919 KB]
LRP 100Q, LRP 5030. 2.pdf [1 MB]
LRP 5030.pdf [469 KB]

-----------------------------------------LRP 180Q-----------------------------------------

LRP 180Q. 1.pdf [823 KB]
LRP 180Q. 2.pdf [562 KB]
LRP 180Q.pdf [303 KB]

----------------------------------------LRP 180QH----------------------------------------

LRP 180QH. .pdf [891 KB]

-------------------------------LRP-3020, LRP-4010, LRP-404-------------------------------

LRP-3020, LRP-4010, LRP-404. 1.pdf [230 KB]
LRP-3020, LRP-4010, LRP-404. 2.pdf [1 MB]
LRP-3020, LRP-4010, LRP-404.pdf [210 KB]

------------------------------LRP-3020S, LRP-4010S, LRP-404S------------------------------

LRP-3020S, LRP-4010S, LRP-404S. .pdf [716 KB]

-----------------------------------LRP-5030S, LRP-100QS-----------------------------------

LRP-5030S, LRP-100QS. .pdf [847 KB]

--------------------------------------LX-40, LX-80N--------------------------------------

LX-40, LX-80N.pdf [390 KB]

-------------------------------------LX-402, LX-802N-------------------------------------

LX-402, LX-802N. 1.pdf [729 KB]
LX-402, LX-802N. 2.pdf [5 MB]
LX-402, LX-802N. .pdf [25 MB]
LX-402, LX-802N.pdf [128 KB]

-----------------------------MRP-3050S CAM, MRP-3050S CAM DN-----------------------------

MRP-3050S CAM, MRP-3050S CAM DN. .pdf [801 KB]

------------------------MX-40QZ, MX-50QZ, MX-50T, MX-40PI, MX-40PT------------------------

MX-40QZ, -50QZ, -50T, -40PI, -40PT. .pdf [16 MB]
MX-40QZ, MX-50QZ. 1.pdf [505 KB]
MX-40QZ, MX-50QZ. 2.pdf [1 MB]
MX-40QZ, MX-50QZ.pdf [440 KB]

-----------------------------OML-ST, OML-AM, OML-DT, OML-DAM-----------------------------

Installation Instructions OML-ST, OML-AM, OML-DT, OML-DAM.pdf [1 MB]
OML-ST, OML-AM, OML-DT, OML-DAM.pdf [1 MB]
OML-ST, -AM, -DT, -DAM. .pdf [396 KB]

------------------------------------OPM-3020, OPM-303------------------------------------

OPM-3020, OPM-303. .pdf [1 MB]

------------------------------------------OS-12C------------------------------------------

OS-12. 11.05.2020.pdf [196 KB]

------------------------------------------PIE-1------------------------------------------

PIE-1. 11.05.2020.pdf [1 MB]
PIE-1. 11.05.2020.pdf [2 MB]

--------------------------------------QXI-R, QXI-RDT--------------------------------------

QXI-R, QXI-RDT. 11.05.2020.pdf [1 MB]

--------------------------------------QXI-ST, QXI-DT--------------------------------------

QXI-ST, QXI-DT. 11.05.2020.pdf [1 MB]

------------------------------RBM-60QN, RBM-100QN, RBM-200QN------------------------------

RBM-60QN, RBM-100QN, RBM-200QN. 11.05.2020.pdf [2 MB]

------------------Rednet RN4-10-25, Rednet RN4-25-75, Rednet RN4-75-150------------------

Rednet RN4-10-25, -25-75, -75-150. 1.pdf [534 KB]
Rednet RN4-10-25, -25-75, -75-150. 2.pdf [1 MB]
Rednet RN4-10-25, -25-75, -75-150. .pdf [584 KB]
Rednet RN4-10-25, -25-75, -75-150.pdf [216 KB]

-----------------------------------------RLS-3060-----------------------------------------

RLS-3060. 07.05.2009 .pdf [3 MB]
RLS-3060. .pdf [2 MB]

-----------------------------------------RX-40QZ-----------------------------------------

RX-40QZ. 1.pdf [406 KB]
RX-40QZ. 2.pdf [2 MB]
RX-40QZ. .pdf [20 MB]
RX-40QZ. 1.pdf [324 KB]
RX-40QZ. 2.pdf [418 KB]

-------------------------------------RXC-DT, RXC-DTPL-------------------------------------

RXC-DT, RXC-DTPL. 2010.pdf [10 MB]

------------------------------------------RXC-ST------------------------------------------

RXC-ST. 11.05.2020.pdf [7 MB]

-----------------------SIP-3020, SIP-4010, SIP-404, SIP-3020CAM DN-----------------------

SIP-3020, SIP-4010, SIP-404, SIP-3020CAM DN. .pdf [23 MB]
SIP-3020, SIP-4010, SIP-404. 11.05.2020.pdf [1 MB]

----------------------------SIP-3020-5, SIP-4010-5, SIP-404-5----------------------------

SIP-3020-5, SIP-4010-5, SIP-404-5. 27.10.2009.pdf [8 MB]
SIP-3020-5, SIP-4010-5, SIP-404-5. .pdf [18 MB]

----------------------------SIP-3020WF, SIP-4010WF, SIP-404WF----------------------------

SIP-3020WF, SIP-4010WF, SIP-404WF. .pdf [4 MB]

------------------------------------SIP-5030, SIP-100------------------------------------

SIP-5030, SIP-100. 27.10.1009.pdf [14 MB]
SIP-5030, SIP-100. .pdf [4 MB]

-----------------------------------SL-100TNR, SL-200TNR-----------------------------------

SL-100TNR, SL-200TNR. 11.05.2020.pdf [6 MB]

------------------SL-200QDM, -350QDM, -650QDM, -200QDP, -350QDP, -650QDP------------------

SL-200QDM, -350QDM, -650QDM, -200QDP, -350QDP, -650QDP. 11.05.2020.pdf [3 MB]

-------------------------------SL-200QN, SL-350QN, SL-650QN-------------------------------

SL-200QN, SL-350QN, SL-650QN. 11.05.2020.pdf [3 MB]

----------------------------------SL-350 QFR, SL-350 QNR----------------------------------

SL-350 QFR, SL-350 QNR. 11.05.2020.pdf [4 MB]

---------------------------------------SQ-40, SQ-60---------------------------------------

SQ-40, SQ-60. 1.pdf [145 KB]
SQ-40, SQ-60. 2.pdf [354 KB]
SQ-40, SQ-60.pdf [1 MB]

------------------------------SX-360Z, SX-360ZV(P), SX-360ZS------------------------------

SX-360Z, SX-360ZV(P), SX-360ZS. 1.pdf [1 MB]
SX-360Z, SX-360ZV(P), SX-360ZS. 2.pdf [3 MB]
SX-360Z, SX-360ZV(P), SX-360ZS. .pdf [24 MB]
SX-360Z.pdf [265 KB]

------------------------------------------VIBRO------------------------------------------

VIBRO.pdf [183 KB]
VIBRO.pdf [82 KB]

--------------------------------------VX-40, VX-40A--------------------------------------

VX-40, VX-40A.pdf [453 KB]

------------------------------------VX-402, VX-402REC------------------------------------

VX-402, VX-402REC. 1.pdf [803 KB]
VX-402, VX-402REC. 2.pdf [1 MB]
VX-402, VX-402REC. .pdf [264 KB]

-----------------------------------------VX-402R-----------------------------------------

VX-402R. 1.pdf [404 KB]
VX-402R. 2.pdf [2 MB]
VX-402R. .pdf [9 MB]

------------------------VXI-R, VXI-RAM, VXI-RDAM-X5 , VXI-RDAM-X8------------------------

VXI-R, VXI-RAM, VXI-RDAM-X5 , VXI-RDAM-X8.pdf [1 MB]

---------------------------------VXI-ST, VXI-AM, VXI-DAM---------------------------------

VXI-ST, VXI-AM, VXI-DAM. 11.05.2020.pdf [1 MB]

-----------------------------------------Paradox-----------------------------------------


----------------------------------------525D, 526D----------------------------------------

525D, 526D.pdf [303 KB]
525D V3.0.pdf [200 KB]

-------------------------------------------950-------------------------------------------

950.pdf [269 KB]

-------------------------------------------DG85-------------------------------------------

DG85.pdf [1 MB]
DG85.pdf [265 KB]

-------------------------------Digigard 25-50, Digigard 60-------------------------------

Digigard 25-50, Digigard 60.pdf [203 KB]

---------------------------------Digigard 55, Digigard 65---------------------------------

Digigard 55, Digigard 65.pdf [210 KB]

---------------------------------------Digigard 70---------------------------------------

Digigard 70.pdf [333 KB]

---------------------------------------Digigard 75---------------------------------------

Digigard 75.pdf [233 KB]

-----------------------------------------Elegance-----------------------------------------

Elegance V5.1.pdf [259 KB]

--------------------------------------GlassTrek 456--------------------------------------

GlassTrek 456 V2.20. 1.pdf [246 KB]
GlassTrek 456 V2.20. 2.pdf [130 KB]

-------------------------------------GlassTrek DG457-------------------------------------

GlassTrek DG457 V1.0.pdf [263 KB]

------------------------------------------NV35M------------------------------------------

Installation Manual NV35M. 1.0. 05.2015.pdf [1 MB]
NV35M. 1.0. 05.2015.pdf [844 KB]

------------------------------------------NV500------------------------------------------

NV500. 1.0. 12.2011.pdf [700 KB]

--------------------------------------NV75M, NV75MX--------------------------------------

Installation Manual NV75M, NV75MX. 1.0. 03.2016.pdf [209 KB]
NV75M, NV75MX. 1.0. 03.2016.pdf [607 KB]

------------------------------------------NV780------------------------------------------

NV780. 2.5. 02.2012.pdf [380 KB]

-----------------------------------------NV780MX-----------------------------------------

Installation Manual NV780MX. 1.0. 01.2016.pdf [978 KB]
NV780MX. 1.0. 01.2016.pdf [1013 KB]

------------------------------------------NVX80------------------------------------------

NVX80. 1.02. 03.2013.pdf [3 MB]

---------------------------------------Paradome 465---------------------------------------

Paradome 465.pdf [158 KB]

--------------------------------------Paradome DG466--------------------------------------

Paradome DG466 eng-fr-esp.pdf [124 KB]

---------------------------------------Paradoor 460---------------------------------------

Paradoor 460. 03.06.2005.pdf [103 KB]
Paradoor 460. 1.pdf [140 KB]

-----------------------------------------PRO 476-----------------------------------------

PRO 476.pdf [243 KB]

-----------------------------------------PRO 476+-----------------------------------------

PRO 476+.pdf [147 KB]

-------------------------------------PRO 476PET Plus-------------------------------------

PRO 476PET Plus.pdf [312 KB]

-----------------------------------------Pyronix-----------------------------------------


------------------------------------------BG16DF------------------------------------------

BG16DF. 10.2005.pdf [4 MB]

-------------------------------------Break Glass 2000-------------------------------------

Note Break Glass 2000.pdf [206 KB]
Technical Specifications Break Glass 2000.pdf [448 KB]
Break Glass 2000. 10.2005.pdf [227 KB]
Break Glass 2000.pdf [89 KB]

---------------------------------------Colt Optica---------------------------------------

Colt Optica . 04.2001 .pdf [391 KB]

---------------------------------------Colt Quad PI---------------------------------------

Technical Specifications Colt Quad PI.pdf [240 KB]
Colt Quad PI. 17.05.2020.pdf [731 KB]

-----------------------------------------Colt VC-----------------------------------------

Instructions Colt VC. 06.2003.pdf [508 KB]

-----------------------------------------Colt XS-----------------------------------------

Note Colt XS.pdf [211 KB]
Technical Specifications Colt XS.pdf [640 KB]
Colt XS. 06.2005.pdf [854 KB]
Colt XS.pdf [87 KB]

-----------------------------------------Colt10DL-----------------------------------------

Colt10DL. 17.05.2020.pdf [583 KB]

-----------------------------------------Colt10DP-----------------------------------------

Colt10DP. 17.05.2020.pdf [583 KB]

-----------------------------------------EC115DT-----------------------------------------

Note EC115DT.pdf [709 KB]

----------------------------------------Eclipse EP----------------------------------------

Technical Specifications Eclipse EP.pdf [389 KB]

---------------------------------------Enforcer DX---------------------------------------

Enforcer DX. 06.2002 .pdf [953 KB]

---------------------------------------Enforcer QX---------------------------------------

Note Enforcer QX.pdf [146 KB]
Enforcer QX . 03.2001 .pdf [242 KB]

-----------------------------------------Equinox-----------------------------------------

Note Equinox.pdf [199 KB]

----------------------------------------Equinox AM----------------------------------------

Equinox AM.pdf [113 KB]

----------------------------------------Equinox E----------------------------------------

Equinox E.pdf [95 KB]

------------------------------------------Kudos------------------------------------------

Note Kudos.pdf [254 KB]
Technical Specifications Kudos.pdf [431 KB]

-----------------------------------------Kudos AM-----------------------------------------

Note KX15DTAM, Kudos AM.pdf [396 KB]
Technical Specifications Kudos AM.pdf [433 KB]

-----------------------------------------Kudos DT-----------------------------------------

Technical Specifications Kudos DT.pdf [372 KB]

----------------------------------------Kudos DT+----------------------------------------

Technical Specifications Kudos DT+.pdf [372 KB]

------------------------------------------KX10DP------------------------------------------

KX10DP. 17.05.2020.pdf [4 MB]
KX10DP.pdf [373 KB]

-----------------------------------------KX10DTP-----------------------------------------

KX10DTP. 17.05.2020.pdf [1 MB]

------------------------------------------KX12DW------------------------------------------

Technical Specifications KX12DW.pdf [1 MB]

------------------------------------------KX15DD------------------------------------------

Technical Specifications KX15DD.pdf [266 KB]
KX15DD. 1.pdf [364 KB]
KX15DD. 2.pdf [469 KB]
KX15DD. 17.05.2020.pdf [1 MB]

------------------------------------------KX15DQ------------------------------------------

Technical Specifications KX15DQ.pdf [270 KB]
KX15DQ. 1.pdf [366 KB]
KX15DQ. 2.pdf [1 MB]
KX15DQ. 17.05.2020.pdf [4 MB]

------------------------------------------KX15DT------------------------------------------

Technical Specifications KX15DT.pdf [264 KB]
KX15DT. 1.pdf [1 MB]
KX15DT. 2.pdf [805 KB]
KX15DT. 17.05.2020.pdf [376 KB]

-----------------------------------------KX15DTAM-----------------------------------------

Technical Specifications KX15DTAM.pdf [317 KB]
KX15DTAM.pdf [787 KB]

------------------------------------------KX15ED------------------------------------------

Note KX Series.pdf [939 KB]
Technical Specifications KX15ED.pdf [251 KB]
KX15ED. 1.pdf [368 KB]
KX15ED. 2.pdf [1 MB]
KX15ED. 17.05.2020.pdf [376 KB]

------------------------------------------KX18DC------------------------------------------

Technical Specifications KX18DC.pdf [406 KB]
KX18DC. 1.pdf [387 KB]
KX18DC. 2.pdf [1 MB]
KX18DC. 17.05.2020.pdf [461 KB]

------------------------------------------KX18EC------------------------------------------

Technical Specifications KX18EC.pdf [394 KB]
KX18EC. 1.pdf [387 KB]
KX18EC. 2.pdf [1 MB]

----------------------------------------Magnum PI----------------------------------------

Magnum PI. 17.05.2020.pdf [795 KB]

---------------------------------------Magnum Ultra---------------------------------------

Note Magnum.pdf [182 KB]
Technical Specifications Magnum Ultra.pdf [594 KB]
Magnum Ultra.pdf [4 MB]

---------------------------Matrix 424, Matrix 832, Matrix 832+---------------------------

Note Matrix 832+.pdf [199 KB]
Technical Specifications Matrix 424.pdf [230 KB]
Technical Specifications Matrix 832.pdf [232 KB]
Matrix 424, Matrix 832, Matrix 832+. 3.0.pdf[5 MB]
LCD Matrix 424, Matrix 832, Matrix 832+. 3.0.pdf[1 MB]
Matrix 424, Matrix 832, Matrix 832+. 3.0.pdf [2 MB]

-----------------------------------Matrix 6, Matrix 816-----------------------------------

Technical Specifications Matrix 6.pdf [200 KB]
Matrix 6, Matrix 816. 1.34.pdf [2 MB]
Matrix 6, Matrix 816. 1.34.pdf [1 MB]
Matrix 6, Matrix 816. 1.34.pdf [1012 KB]

----------------------------------------Me Q Blue----------------------------------------

Me Q Blue. 17.05.2020.pdf [939 KB]

-------------------------------------------ME12-------------------------------------------

Note ME Series.pdf [164 KB]
Technical Specifications ME12.pdf [592 KB]

----------------------------------------Octopus EP----------------------------------------

Note Octopus Series.pdf [178 KB]
Technical Specifications Octopus EP.pdf [214 KB]
Octopus EP. 03.2001 .pdf [641 KB]
Octopus EP. 06.2005 .pdf [742 KB]
Octopus EP. 17.05.2020.pdf [2 MB]

--------------------------------------Octopus Super--------------------------------------

Technical Specifications Octopus Super.pdf [213 KB]

------------------------------------------PCX 46------------------------------------------

PCX 46. V9.25.pdf [2 MB]
PCX 46. V9.25.pdf [3 MB]

---------------------------------------Sterling 10---------------------------------------

Note Sterling 10.pdf [185 KB]
Technical Specifications Sterling 10.pdf [396 KB]

-------------------------------------Sterling Compact-------------------------------------

Technical Specifications Sterling Compact.pdf [243 KB]
Sterling Compact.pdf [781 KB]

--------------------------------------TMD 15 Grade 3--------------------------------------

Note TMD 15 Grade 3. 1.pdf [279 KB]
Note TMD 15 Grade 3. 2.pdf [722 KB]
TMD 15 Grade 3. 17.05.2020.pdf [1 MB]

----------------------------------------Veritec P2----------------------------------------

Note Veritec P2.pdf [145 KB]
Technical Specifications Veritec P2.pdf [428 KB]

----------------------------------------XD10TT-AM----------------------------------------

XD10TT-AM. 17.05.2020.pdf [13 MB]

------------------------------------------XD15TT------------------------------------------

XD15TT. 17.05.2020.pdf [9 MB]

-----------------------------------------Siemens-----------------------------------------


-----------------------------------------AGB 600-----------------------------------------

AGB600 eng 09.2003 .pdf [160 KB]
AGB600. 10.2009 .pdf [133 KB]

-------------------------------------BM41, BM46, BM55-------------------------------------

BM41, BM46, BM55 eng 11.2001 .pdf [1 MB]

------------------------------------------DV451------------------------------------------

DV451 eng 02.2004 .pdf [247 KB]

---------------------------------------GM525, GM526---------------------------------------

GM525, GM526 Eng 02.2004 .pdf [618 KB]

------------------------------------------GM530------------------------------------------

GM530 Eng 02.2004 .pdf [802 KB]

------------------------------------------GM560------------------------------------------

GM560 Eng 02.2004 .pdf [197 KB]

------------------------------------------GM565------------------------------------------

GM565 Eng 02.2004 .pdf [197 KB]

------------------------------------------GM570------------------------------------------

GM570 Eng 02.2004 .pdf [199 KB]

------------------------------------------GM730------------------------------------------

GM730. eng 04.2009 .pdf [304 KB]
GM730. eng 05.2004 .pdf [124 KB]

------------------------------------------GM760------------------------------------------

GM760. eng 04.2009 .pdf [339 KB]
GM760. eng 05.2004 .pdf [124 KB]

------------------------------------------GM770------------------------------------------

GM770. eng 05.2004 .pdf [123 KB]

------------------------------------------GM775------------------------------------------

GM775. eng 04.2009 .pdf [365 KB]

------------------------------------------IR100B------------------------------------------

IR100B Eng 06.2003 .pdf [289 KB]

------------------------------------------IR120C------------------------------------------

IR120C Eng 09.2003 .pdf [295 KB]

-----------------------------------------IR120MD-----------------------------------------

IR120MD Eng 09.2003 .pdf [296 KB]

------------------------------------------IR120S------------------------------------------

IR120S Eng 02.2004 .pdf [152 KB]

-----------------------------------------IR120UL-----------------------------------------

IR120UL Eng 02.2004 .pdf [153 KB]

----------------------------------------IR200C-II----------------------------------------

IR200C-II Eng 06.2003 .pdf [319 KB]

-----------------------------------------IR200CD-----------------------------------------

IR200CD Eng 09.2003 .pdf [320 KB]

------------------------------------------IR261------------------------------------------

IR261 Eng 09.2003 .pdf [236 KB]

------------------------------------------IR270C------------------------------------------

IR270C Eng 08.2003 .pdf [306 KB]

-----------------------------------------IR270CT-----------------------------------------

IR270CT Eng 08.2003 .pdf [312 KB]

-----------------------------------------IR270MD-----------------------------------------

IR270MD Eng 08.2003 .pdf [305 KB]

------------------------------------------IR270T------------------------------------------

IR270T Eng 08.2003 .pdf [309 KB]

-------------------------------------IR310C, IR 312C-------------------------------------

IR310C, IR 312C Eng 09.2003 .pdf [306 KB]

------------------------------------IR310CD, IR 312CD------------------------------------

IR310CD, IR 312CD Eng 09.2003 .pdf [307 KB]

------------------------------------IR310MD, IR 312MD------------------------------------

IR310MD, IR 312MD Eng 09.2003 .pdf [309 KB]

--------------------------------------IR80B, IR80UL--------------------------------------

IR80B, IR80UL Eng 06.2003 .pdf [313 KB]

-----------------------------------------IRM 120C-----------------------------------------

IRM120C Eng 06.2004.pdf [177 KB]

----------------------------------------IRM 120MD----------------------------------------

IRM120MD Eng 05.2004 .pdf [185 KB]

-----------------------------------------IRM270C-----------------------------------------

IRM270C eng 10.2004 .pdf [100 KB]

------------------------------------------IRM80------------------------------------------

IRM80 eng 10.2004 .pdf [140 KB]

-------------------------------------IS 390, IS 390H-------------------------------------

IS 390, IS 390H eng 10.2003 .pdf [454 KB]

-------------------------------------IS 392, IS 392H-------------------------------------

IS 392, IS 392H eng 10.2003 .pdf [446 KB]

------------------------------------------IS 402------------------------------------------

IS402 eng 02.2004 .pdf [924 KB]

-------------------------------------IS 404, IS 404H-------------------------------------

IS 404, IS 404H eng 10.2003 .pdf [460 KB]

----------------------------------IS 433, IS 434, IS 435----------------------------------

IS433, IS434, IS435 eng 02.2004 .pdf [147 KB]

----------------------------------IS 443, IS 444, IS 445----------------------------------

IS443, IS444, IS445 eng 02.2004 .pdf [170 KB]

-----------------------------MK2, MK340, MK342, MK640, MK642-----------------------------

MK2, MK340, MK342, MK640, MK642 eng 07.2002 .pdf [387 KB]

-------------------------------------MSU1, MSU3, MSU4-------------------------------------

MSU1, MSU3, MSU4 eng 05.2002 .pdf [113 KB]

-----------------------------------------RAIR270-----------------------------------------

RAIR270 Eng 08.2003 .pdf [292 KB]

------------------------------------------SI120------------------------------------------

SI120 eng 09.2003 .pdf [2 MB]

------------------------------------------SI220------------------------------------------

SI220 eng 09.2003 .pdf [2 MB]

------------------------------------------SI410------------------------------------------

SI410 eng 09.2003 .pdf [1 MB]

----------------------------------TKU2, TKU3, TKU4, TKU5----------------------------------

TKU2, TKU3, TKU4, TKU5 eng 02.2004 .pdf [177 KB]

-----------------------------------------UP 370C-----------------------------------------

UP 370C Eng 09.2003 .pdf [297 KB]

-----------------------------------------UP 370MD-----------------------------------------

UP 370MD Eng 09.2003 .pdf [298 KB]

-----------------------------------------UP 370T-----------------------------------------

UP 370T Eng 09.2003 .pdf [298 KB]

----------------------------------------Yuan-Hsun----------------------------------------


------------------------------BS-200, BS-400, BS-600, BS-800------------------------------

Manual BS-200, BS-400, BS-600, BS-800.pdf [202 KB]

-------------------------------------DES-700, DC-500-------------------------------------

Manual DES-700, DC-500.pdf [332 KB]
Note DES-700.pdf [510 KB]

----------------------------------DR-2000, DR-300, IR-40----------------------------------

Manual DR-2000, DR-300, IR-40.pdf [100 KB]
Note DR-2000, DR-300, IR-40.pdf [510 KB]

---------------------------------IR-100, IR-3000, IR-700---------------------------------

Manual IR-100, IR-3000, IR-700.pdf [207 KB]
Note IR-100, IR-3000, IR-700.pdf [542 KB]

----------------------------------------IR-1000HR----------------------------------------

Note IR-1000HR.pdf [380 KB]
Users manual IR-1000HR.pdf [39 KB]

------------------------------------------IR-10H------------------------------------------

Users manual IR-10H.pdf [40 KB]

----------------------------IR-15 M18, IR-300 M18, IR-3000 M18----------------------------

Manual IR-15 M18, IR-300 M18, IR-3000 M18.pdf [90 KB]
Note IR-15 M18, IR-300 M18, IR-3000 M18.pdf [517 KB]

----------------------------------------IR-2000TS----------------------------------------

Manual IR-2000TS.pdf [238 KB]

-----------------------------------------IR-3000G-----------------------------------------

Manual IR-3000G.pdf [285 KB]

---------------------MPB-10HD, MPB-15HD, MPB-20HD, MPB-25HD, MPB-30HD---------------------

Installation manual MPB-10HD, -15HD, -20HD, -25HD, -30HD.pdf [1000 KB]

-----------------------------------------MW-2200-----------------------------------------

Installation manual MW-2200.pdf [177 KB]

------------------PB-10HD, PB-25HD, PB-30HD, PB-60HD, PB-80HD, PB-120HD------------------

Installation manual PB-10HD, -25HD, -30HD, -60HD, -80HD, -120HD.pdf [708 KB]
Note PB-30HD, PB-60HD, PB-80HD, PB-120HD.pdf [538 KB]

-----------------------------------------PIR-1500-----------------------------------------

Manual PIR-1500.pdf [142 KB]

-----------------------------------------PIR-3800-----------------------------------------

Manual PIR-3800.pdf [80 KB]

----------------------Quad-50CS, Quad-100CS, Quad-150CS, Quad-200CS----------------------

Installation manual Quad-50CS, -100CS, -150CS, -200CS.pdf [7 MB]

------------------------------------------RS-06------------------------------------------

Manual RS-06.pdf [70 KB]

-------------------------------------- --------------------------------------


-------------------------------- 2()-------------------------------

- 2(). 2. 22.08.2018.pdf [283 KB]
- 2(). 2016 .pdf [797 KB]
- 2(). 2017 .pdf [1 MB]
- 2(). 5.31. 10.2018.pdf [1 MB]

--------------------------------- 2()--------------------------------

- 2(). . 18022016.pdf [225 KB]
- 2(). 2008 .pdf [476 KB]
- 2(). 2016 . . 18022016.pdf [626 KB]
- 2(), 2(), 2().pdf [189 KB]

--------------------------------- 2()--------------------------------

- 2(). . 31052017.pdf [276 KB]
- 2(). 01.08.2016 . . 31052017.pdf [1002 KB]
- 2(). 2007 .pdf [1 MB]

-------------------------------- 2()-------------------------------

- 2().pdf [275 KB]
- 2(). 01.08.2017 . . 27.07.2017.pdf [1 MB]
- 2(). 2009 .pdf [593 KB]

------------------------------- 2, 2()------------------------------

- 2, 2(). 2004 .pdf [585 KB]

--------------------------------- USB-RS-485--------------------------------

- USBRS-485.pdf [224 KB]

--------------------------------------- --------------------------------------

- . 2010 .pdf [515 KB]
- . 1.01. 2018 .pdf [761 KB]

-------------------------------------- -------------------------------------

- .pdf [221 KB]

----------------------- - 8-4-----------------------

- 84.pdf [262 KB]
- 84. 2016 .pdf [448 KB]

---------------------- 220-24-10 -----------------------

220-24-10 - . 05.02.2019.pdf [274 KB]
220-24-10 - .pdf [273 KB]

---------------------- 220-27-2 -----------------------

220-27-2 -.pdf [184 KB]

------------------------------------------------------------------------------------


------------------------------------------------------------------------------

.421423.027 . 3.pdf [502 KB]
.421423.027-01 . 1.pdf [262 KB]
.pdf [427 KB]

-----------------------------------------215 ----------------------------------------

-215 .pdf [113 KB]
-215 .pdf [354 KB]

------------------------------------------322-----------------------------------------

-322. 8.pdf [369 KB]

------------------------------------------421-----------------------------------------

-421.doc [71 KB]

----------------------------------------- 32-----------------------------------------


------ 32. 2001 ------

32.pdf [162 KB]
1-1.pdf [58 KB]
1-2.pdf [51 KB]
10-1.pdf [36 KB]
11-1.pdf [38 KB]
12-1.pdf [38 KB]
13-1.pdf [35 KB]
14-1.pdf [39 KB]
15-1.pdf [36 KB]
2-1.pdf [33 KB]
2-2.pdf [32 KB]
2-3.pdf [32 KB]
20-1.pdf [39 KB]
3-1.pdf [108 KB]
3-2.pdf [98 KB]
4-1.pdf [118 KB]
4-2.pdf [71 KB]
5-1.pdf [34 KB]
5-2.pdf [34 KB]
5-3.pdf [39 KB]
6-1.pdf [30 KB]
6-2.pdf [46 KB]
7.pdf [68 KB]
8-1.pdf [32 KB]
9-1.pdf [47 KB]
9-2.pdf [47 KB]
9-3.pdf [48 KB]
9.pdf [61 KB]

------------------------------------------ID-----------------------------------------

-ID. 2015 . 10.pdf [1 MB]
-ID. 2017 . 12.pdf [1 MB]
-ID. 2015 . 7.pdf [870 KB]
-ID. 2017 . 9.pdf [934 KB]
-ID.pdf [484 KB]

-------------------------------------------------------------------------------

-. 2016 . 1.pdf [1006 KB]
-. 2017 . 3.pdf [1 MB]
-. 2018 . 4.pdf [6 MB]
-. 2017 . 4.pdf [17 MB]
-. 2018 . 5.pdf [3 MB]
-. 5.pdf [526 KB]
-. 6.pdf [357 KB]

------------------------------------------5-----------------------------------------

- -5. 2016 . 10.pdf [14 MB]
- -5. 2018 . 11.pdf [7 MB]
- -5. 2014 . 5.pdf [4 MB]
- -5. 2018 . 6.pdf [2 MB]
- -5. 2013 . 3.pdf [3 MB]
- -5. 2018 . 4.pdf [1 MB]
- -5. 2013 . 3.pdf [2 MB]
- -5. 2018 . 4.pdf [1 MB]
- -5. 2018 . 4.pdf [2 MB]
- -5. 2013 . 3.pdf [2 MB]
- -5. 2018 . 4.pdf [1 MB]
- -5. 2018 . 6.pdf [3 MB]
- -5. 2018 . 4.pdf [1 MB]
- -5. 2013 . 3.pdf [2 MB]
- -5. 2018 . 4.pdf [1 MB]
-5. 2017 ..pdf [728 KB]
-5. 2014 . 7.pdf [4 MB]
-5. 2018 . 10.pdf [1 MB]
-5. 2013 . 2.pdf [379 KB]

------------------------------------------------------------------------------------


--------------------------------------- -305---------------------------------------

. 5.2. 05.05.2005 .pdf [187 KB]
. 5.4. 06.05.2006 .pdf [225 KB]
-. 2005 .doc [9 MB]
. 5.2. 05.05.2005 .pdf [737 KB]
. 5.4. 06.02.2006 .pdf [752 KB]

------------------------------------------------------------------------------------

. 2001 .pdf [162 KB]

----------------------------------------------------------------------------------

. 2002 .pdf [103 KB]
. 2004 .pdf [185 KB]
. 2007 .doc [118 KB]
. 24.05.2020.pdf [123 KB]

------------------------------------------------------------------------------------

. 2002 .pdf [162 KB]
. 24.05.2020.pdf [230 KB]
.pdf [225 KB]

-------------------------------------------------------------------------------


----------------------------------------3----------------------------------------

3. . 1.7. 11.10.2011.pdf [222 KB]

--------------------- ( ) 0104050639-4-1-1---------------------

.doc [4 MB]
04.03.2005 .doc [3 MB]
13.11.2001 .doc [1 MB]
17.02.2006 .doc [2 MB]
20.04.2007 .doc [2 MB]
24.05.2005 .doc [3 MB]
25.07.2001 .doc [1 MB]
23.11.2004 .doc [172 KB]

----------------------- ( 3.00) 0104050639-4-1-1-----------------------

( 3.00) 05.12.2005 .doc [896 KB]
( 3.00) 09.10.2007 .doc [962 KB]
( 3.00) 12.02.2007 .doc [963 KB]
( 3.00) 14.10.2008 .doc [965 KB]
( 3.00) 19.04.2006 .doc [907 KB]
( 3.00) 26.10.2006 .doc [930 KB]
( 3.00) 29.05.2006 .doc [908 KB]

------------------ ( ) 0104050639-4-1-2------------------

04.03.2005 .doc [1 MB]
20.04.2007 .doc [1 MB]
31.03.2003 .doc [302 KB]

---------------------------------- 19.02.2001 ----------------------------------

19.02.2001 .doc [22 KB]
19.02.2001 .doc [769 KB]

------------------------------------20 (-23)-----------------------------------

-20 (-23) 13.03.2006 .doc [2 MB]
-20 (-23) 17.05.2002 .doc [1 MB]
-20 (-23) 26.12.2002 .doc [1 MB]

-----------------------------512 0104050639-512-1----------------------------

-512 -64 30.05.2005 .doc [165 KB]
-512 -8 29.10.2008 .doc [317 KB]
-512 04.08.2003 .doc [142 KB]
-512 13.09.2005 .doc [223 KB]
-512 17.02.2005 .doc [222 KB]
-512 17.04.2006 .doc [120 KB]
-512 03.11.2003 .doc [226 KB]
-512 17.02.2005 .doc [328 KB]
-512 18.03.2003 .doc [167 KB]
-512 -23 17.05.2002 .doc [1 MB]
-512 13.08.2007 .doc [1 MB]
-512 14.03.2008 .doc [2 MB]
-512 19.04.2004 .doc [1 MB]
-512 29.05.2003 .doc [393 KB]

-------------------------------------- -512--------------------------------------

-512 - 15.06.2001 .doc [231 KB]
-512 - 25.05.2001 .doc [76 KB]
-512 - 15.06.2001 .doc [66 KB]
-512 - 25.05.2001 .doc [343 KB]
-512 - 15.06.2001 .doc [161 KB]
-512 - 25.05.2001 .doc [56 KB]
-512 - 15.06.2001 .doc [139 KB]
-512 - 25.05.2001 .doc [253 KB]

-------------------------------------- -512--------------------------------------

-512 04.07.2001 .doc [2 MB]
-512 05.03.2005 .doc [3 MB]
-512 10.01.2002 .doc [2 MB]
-512 13.02.2002 .doc [2 MB]
-512 20.03.2007 .doc [3 MB]
-512 27.02.2008 .doc [3 MB]

-------------------------------------2 407-5-4------------------------------------

-2 1. 20.09.2004 .pdf [343 KB]
-2 4. 19.03.2007 .pdf [341 KB]
-2 6.pdf [341 KB]
-2 15.12.1997 .doc [141 KB]
-2 07.11.2008 .doc [2 MB]
-2 09.11.2009 .doc [2 MB]
-2 18.02.2002 .doc [1 MB]
-2 27.05.2005 .doc [2 MB]
-2 30.01.2002 .doc [1 MB]
-2 31.08.2004 .doc [1 MB]

-------------------------------------2 407-5-4------------------------------------

-2. 1995 .doc [2 MB]

--------------------------------------3 407-12-------------------------------------

-3 20.09.2004 .pdf [169 KB]
-3 02.10.2001 .doc [429 KB]
-3 06.02.2002 .doc [429 KB]
-3 06.12.2001 .doc [429 KB]
-3 16.05.2008 .doc [510 KB]
-3 21.06.2003 .doc [429 KB]

-----------------------------------------2---------------------------------------

--2 23.10.1998 .doc [82 KB]

--------------------------------------------------------------------------------------

1.pdf [242 KB]

--------------------------------------- 329-3---------------------------------------

21.11.2005 .pdf [524 KB]
13.05.1999 .doc [576 KB]
17.02.2006 .doc [5 MB]
27.03.2008 .doc [5 MB]
27.09.2001 .doc [4 MB]

----------------------------------- 25.01.2002 -----------------------------------

() 25.01.2002 .doc [221 KB]
, 25.01.2002 .doc [1 MB]
- 25.01.2002 .doc [3 MB]

----------------------------------- 28.10.2004 -----------------------------------

() 28.10.2004 .doc [248 KB]
, 28.10.2004 .doc [3 MB]
- 28.10.2004 .doc [1 MB]

--------------------------------------2 329-12-------------------------------------

-2 16.08.2007 .pdf [139 KB]
-2 07.04.2008 .doc [554 KB]

-------------------------------------2 32910-3------------------------------------

-2 3. 06.02.2007 .pdf [169 KB]
-2 6.pdf [170 KB]

-------------------------------------- 329-3-1-------------------------------------

- 4.pdf [237 KB]
- 3.0. 06.09.2012 .pdf [337 KB]

------------------------------------ 32910-3-1-----------------------------------

-. . 3. 03.09.2019.pdf [858 KB]
-. . 1.2. 10.05.2018.pdf [316 KB]

-------------------------------------- 32910-2-------------------------------------

- 01.06.2006 .pdf [146 KB]

-------------------------------------- 315-4--------------------------------------

18.01.2007 .pdf [242 KB]
27.03.2008 .pdf [242 KB]
18.12.2006 .doc [1022 KB]
22.03.2007 .doc [1021 KB]
22.11.2006 .pdf [1 MB]
27.03.2008 .doc [1 MB]

-------------------------------------- 315-6-------------------------------------

- 1.pdf [409 KB]
- 16.12.2008 .doc [762 KB]

--------------------------------------------1-------------------------------------------

-1 18.03.2003 .doc [62 KB]

----------------------------------------------------------------------------------------

09.02.2007 .doc [151 KB]

------------------------------------------8-------------------------------------------

8-. . 1.3. 10.03.2015 .pdf [1 MB]

------------------------------------- 305-5-------------------------------------

13.02.2006 .pdf [184 KB]
25.03.2005 .pdf [162 KB]
23.08.2007 .pdf [101 KB]
22.03.2006 .doc [668 KB]

--------------------------------------5 307-2-------------------------------------

-5. 1. 20.09.2004 .pdf [342 KB]
-5. 1. 20.09.2004 .pdf [442 KB]
-5. 4.pdf [447 KB]
-5 14.12.1998 .doc [234 KB]
-5 03.01.2002 .doc [945 KB]
-5 31.08.2004 .doc [4 MB]

---------------------------------- 0104059-3-2----------------------------------

18.03.2005 .doc [1 MB]
24.02.2005 .doc [1 MB]

----------------------------1 409-20, -1 409-20-1---------------------------

-1, -1 20.09.2004 .pdf [180 KB]
-1, -1. 3.pdf [201 KB]
-1, -1 05.03.2011 .pdf [228 KB]
-1, -1 12.12.2001 .doc [239 KB]
-1, -1 20.09.2001 .doc [253 KB]

---------------------------2 409-26-1, -2, -2-1--------------------------

-2-1. 3.pdf [1 MB]
-2, -2 20.09.2004 .pdf [241 KB]
-2, -2. 4.pdf [227 KB]
-2, -2 15.01.2004 .doc [4 MB]
-2, -2 22.09.2005 .doc [4 MB]
-2, -2 29.12.2003 .doc [4 MB]
-2, -2 30.09.2002 .doc [4 MB]
-2, -2, -2-1 29.03.2011 .pdf [621 KB]

--------------------------------------3 409-33-------------------------------------

-3 01.11.2006 .pdf [139 KB]
-3 09.04.2004 .pdf [239 KB]
-3 20.09.2004 .pdf [240 KB]

------------------------------------3-1 409-33-1-----------------------------------

-3-1 1. 04.10.2007 .pdf [138 KB]
-3-1 4.pdf [1 MB]

----------------------------------4 (-) 309-19---------------------------------

-4. 1. 01.06.2006 .pdf [247 KB]
-4 07.06.2006 .doc [1 MB]
-. 1. 30.05.2012 .pdf [1 MB]

-------------------------------------4 309-19-1------------------------------------

-4 1. 06.08.2008 .pdf [190 KB]

-----------------------------5 409-34, -5 309-16----------------------------

-5, -5 13.05.2005 .pdf [220 KB]
-5, -5 16.08.2007 .pdf [211 KB]
-5, -5 28.01.2005 .pdf [227 KB]
-5, -5 06.07.2011 .pdf [397 KB]
-5, -5 07.08.2007 .doc [1 MB]
-5, -5 28.07.2005 .doc [1 MB]
-5, -5 31.08.2005 .doc [1 MB]

--------------------------5 409-34-1, -5 309-16-1-------------------------

-5, -5. 4.pdf [215 KB]
-5, -5. . 2.0. 05.09.2012 .pdf [338 KB]

--------------------------5 40910-4, -5 30910-2-------------------------

-5 , -5 . 2. 01.06.2006 .pdf [163 KB]
-5 , -5 . 5.pdf [1 MB]

----------------------------7 409-47, -7-1 409-47-1---------------------------

-7. 1. 17.05.2007 .pdf [184 KB]
-7. 4. 06.08.2007 .pdf [186 KB]
-7, -7-1, -2.pdf [784 KB]
-7 08.08.2007 .doc [739 KB]
-7, -7-1 07.12.2007 .pdf [412 KB]

-----------------------------------------------------------------------------------

-. . 3. 16.07.2019.pdf [288 KB]
-. . 1.3. 10.05.2018.pdf [332 KB]

------------------------------------- 40910-3------------------------------------

- 0. 30.03.2005 .pdf [192 KB]
- 01.pdf [178 KB]
- 1.pdf [250 KB]
- 3. 05.10.2006 .pdf [178 KB]

----------------------------------- 30910-3-1----------------------------------

-. 1.pdf [886 KB]
-. 4.pdf [1 MB]

------------------------------------- 30910-3------------------------------------

- 1.pdf [789 KB]

----------------------------- -----------------------------

.doc [62 KB]

---------------------------------- ----------------------------------

2.pdf [94 KB]

------------------------------- -------------------------------

2.pdf [111 KB]

-------------------------------- .301565.001--------------------------------

.301565.001 1.pdf [219 KB]

----------------------------------- 200 207-7-1-----------------------------------

-200 18.08.2008 .doc [2 MB]
-200 24.06.2010 .pdf [877 KB]
-200 27.10.2006 .doc [814 KB]
-200 31.07.2007 .doc [919 KB]
-200. 2.2. 2017 .pdf [1 MB]

-------------------------------------- 207-7--------------------------------------

21.12.2005 .doc [685 KB]
28.11.2003 .doc [734 KB]

----------------------------------- 20710-7-2----------------------------------

-. . 1.9. 29.01.2019.pdf [699 KB]
-. . 1.2. 23.06.2017.pdf [1 MB]

---------------------------------- 0104059-1-3----------------------------------

03.10.2001 .doc [612 KB]
04.02.2002 .doc [606 KB]
16.08.2007 .doc [744 KB]
18.03.2002 .doc [636 KB]
27.05.2005 .doc [727 KB]
28.11.2001 .doc [579 KB]
. . 1.0. 18.01.2012 .pdf [422 KB]

----------------------------------2 0104059-2-1---------------------------------

-2 08.06.2005 .doc [668 KB]
-2 16.10.2003 .doc [584 KB]
-2 17.05.2002 .doc [544 KB]
-2 18.05.2007 .doc [1 MB]
-2 22.08.2008 .doc [1 MB]
-2 28.11.2003 .doc [584 KB]

----------------------------------4 0104059-4-1---------------------------------

-4 05.04.2011 .pdf [568 KB]
-4 06.07.2004 .doc [844 KB]
-4 09.06.2005 .doc [878 KB]
-4 09.10.2007 .doc [1 MB]
-4 10.06.2004 .doc [845 KB]
-4 12.02.2007 .doc [1 MB]
-4 14.10.2008 .doc [1 MB]
-4 15.02.2005 .doc [858 KB]
-4 15.05.2007 .doc [1 MB]
-4 19.04.2006 .doc [924 KB]
-4 19.11.2004 .doc [857 KB]
-4 26.09.2003 .doc [843 KB]
-4 29.05.2006 .doc [925 KB]
-4 30.10.2006 .doc [963 KB]
-4 31.08.2004 .doc [845 KB]
-4.doc [53 KB]

----------------------------------- 01059-1-4-----------------------------------

15.08.2000 .doc [344 KB]
14.12.2007 .doc [357 KB]
21.01.2002 .doc [347 KB]

-----------------------3 0104059-3-1, 0104050639-3-1----------------------

-3 01.02.2002 .doc [624 KB]
-3 13.01.2005 .doc [711 KB]
-3 18.03.2002 .doc [661 KB]
-3 19.05.2005 .doc [810 KB]
-3 20.08.2002 .doc [680 KB]
-3 22.08.2001 .doc [650 KB]

------------------------------------------3-----------------------------------------

-3 02.02.2009 .doc [2 MB]
-3 16.03.2005 .doc [2 MB]
-3 18.03.2003 .doc [571 KB]
-3 18.06.2008 .doc [2 MB]
-3 19.11.2007 .doc [2 MB]

-------------------------------4 0104050639-4-2------------------------------

4 03.07.2008 .doc [1 MB]
4 21.08.2007 .doc [975 KB]

---------------------------------------------------------------------------------

-. . 1.1. 10.06.2019.pdf [545 KB]

--------------------------------------------------------------------------------

--. . 1.1. 08.07.2019.pdf [1 MB]

-----------------------------------------------------------------------------------

-. . 4. 03.09.2019.pdf [193 KB]
-. . 1.5. 10.05.2018.pdf [292 KB]

-------------------------------------Ex 102-4-2-----------------------------------

--Ex. . 1.7. 22.05.2018.pdf [251 KB]

------------------------------------------Ö------------------------------------------

Ö. 5.pdf [90 KB]

---------------------------------------, --------------------------------------

--, -. . 2.2. 16.07.2019.pdf [1 MB]

--------------------------------- 0104061-68-1---------------------------------

14.06.2000 .doc [183 KB]
.doc [57 KB]
RS-232.doc [32 KB]
16.02.2005 .doc [473 KB]
09.04.2007 .doc [7 MB]
11.06.2008 .doc [7 MB]
11.12.2001 .doc [1 MB]
13.12.2007 .doc [7 MB]
14.02.2005 .doc [6 MB]
15.02.2007 .doc [6 MB]
16.10.2008 .doc [7 MB]
18.05.2001 .doc [1 MB]
24.05.2005 .doc [6 MB]

---------------------------------------2 315-2--------------------------------------

-2 4. 20.09.2004 .pdf [495 KB]
-2 9.pdf [493 KB]
-2 06.12.2002 .doc [1 MB]
-2 09.11.2004 .doc [1 MB]
-2 17.02.2006 .doc [3 MB]
-2 22.12.2003 .doc [1 MB]
-2 23.05.2001 .doc [648 KB]
-2 27.03.2008 .doc [3 MB]
-2 27.09.2002 .doc [1 MB]
-2 31.08.2004 .doc [1 MB]

---------------------------------------3 315-3--------------------------------------

-3 2. 20.09.2004 .pdf [222 KB]
-3 7.pdf [208 KB]
-3 17.02.2006 .doc [557 KB]
-3 21.01.2001 .doc [514 KB]
-3 21.02.2002 .doc [513 KB]
-3 22.06.2007 .doc [689 KB]
-3 27.03.2008 .doc [689 KB]
-3 29.10.2004 .doc [549 KB]
-3 29.11.2001 .doc [478 KB]

---------------------------------------5 315-8--------------------------------------

-5. . 1.0. 09.12.2011 .pdf [395 KB]

--------------------------------------2 414-1-------------------------------------

-2 2.pdf [315 KB]
-2 13.04.2009 .pdf [458 KB]
-2 14.03.2006 .doc [1 MB]
-2 14.06.2005 .doc [1 MB]
-2 20.05.2008 .doc [1 MB]
-2 21.01.2002 .doc [1 MB]
-2 23.05.2001 .doc [1 MB]
-2 24.11.2004 .doc [1 MB]
-2 28.12.2010 .pdf [346 KB]

--------------------------------------3 414-3-------------------------------------

-3 1. 20.09.2004 .pdf [172 KB]
-3 4.pdf [162 KB]
-3 12.03.2001 .doc [1 MB]
-3 13.12.2001 .doc [1 MB]
-3 14.06.2005 .doc [1 MB]
-3 19.05.2008 .doc [1 MB]

--------------------------------------4 414-5-------------------------------------

-4 10.08.2007 .pdf [202 KB]
-4 12.09.2007 .doc [594 KB]
-4 22.08.2008 .doc [611 KB]
-4 28.01.2008 .doc [607 KB]

------------------------------------- 41410-1------------------------------------

-. 4.pdf [348 KB]
-. . 3.5. 11.03.2015 .pdf [1 MB]

------------------------------8 0104050639-8-16-1-----------------------------

-8 22.01.2007 .pdf [226 KB]
12.07.2006 .doc [130 KB]
16.08.2007 .doc [101 KB]
26.10.2006 .doc [131 KB]
-24 17.10.2007 .doc [316 KB]
12.07.2006 .doc [127 KB]
-20 27.03.2007 .doc [591 KB]
18.04.2007 .doc [295 KB]
12.07.2006 .doc [130 KB]
31.10.2006 .doc [143 KB]
27.05.2008 .doc [476 KB]
23.04.2007 .doc [329 KB]
26.04.2007 .doc [308 KB]
01.11.2006 .doc [126 KB]
16.11.2006 .doc [149 KB]
-8 15.09.2006 .pdf [1 MB]

--------------------------- -8 1.0. 17.10.2007 ---------------------------

-8 1. 1.0. 17.10.2007 .pdf [1 MB]
-8 2. 1.0. 17.10.2007 .pdf [1 MB]
-8 3. 1.0. 17.10.2007 .pdf [573 KB]

---------------------------------- -8 2.0----------------------------------

-8 1. 2.0.pdf [1 MB]
-8 2. 2.0.pdf [1 MB]
-8 3. 2.0.pdf [663 KB]

--------------------------------------------------------------------------------------

1.pdf [1 MB]

----------------------------------------------------------------------------------

. 1.40. 11.12.2015.pdf [7 MB]

---------------------------------------------------------------------------

- -. . 2.0. 29.01.2019.pdf [3 MB]
-. . 1.6. 2018 .pdf [3 MB]

-------------------------------------- 414-6--------------------------------------

01.07.2009 .doc [536 KB]

------------------------------------------1-----------------------------------------

-1 . 1.4. 02.04.2013 .pdf [1 MB]

----------------------------------------2----------------------------------------

-2 . 2.0. 08.2012 .pdf [796 KB]
-2. 1.12. 19.05.2016 .pdf [1 MB]

-------------------------3 407-14, -3, -3-1, -3-1------------------------

-3, -3-1 2.pdf [871 KB]
-3, -3-1.pdf [323 KB]
-3, -3, -3-1, -3-1. 1.8. 25.12.2017 .pdf [1 MB]
-3, -3-1 07.07.2004 .doc [635 KB]
-3, -3-1 19.01.2005 .doc [1 MB]
-3, -3-1 24.02.2010 .pdf [1 MB]
-3, -3-1 29.01.2004 .doc [628 KB]

---------------------------------------------------------------------------------

-. . 2. 10.07.2019.pdf [949 KB]

------------------------------------------------------------------------------------


------------------------------------------1-----------------------------------------

-1.pdf [651 KB]

------------------------------------------1-----------------------------------------

-1.pdf [657 KB]

------------------------------------------1-----------------------------------------

-1.pdf [599 KB]

------------------------------------------2-----------------------------------------

-2.pdf [650 KB]

------------------------------------------2-----------------------------------------

-2.pdf [657 KB]

------------------------------------------2-----------------------------------------

-2.pdf [599 KB]

------------------------------------------------------------------------------------


-------------------------------------, . 1-------------------------------------

, . 1. . 1. 22.11.2019.pdf [417 KB]

------------------------------------------------------------------------------------

. . 1. 03.03.2020.pdf [377 KB]
. . 0. 09.08.2007.pdf [292 KB]
. . 2. 20.01.2010.pdf [274 KB]

------------------------------------------31-----------------------------------------

-31. . 2. 16.03.2020.pdf [286 KB]

--------------------------------------31 212-31-------------------------------------

-31. . 2. 16.03.2020.pdf [628 KB]

-----------------------------------34 212-34----------------------------------

-34. . 7. 12.03.2020.pdf [174 KB]

---------------------------------------- 513-3----------------------------------------

513-3. . 18. 14.02.2020.pdf [499 KB]

------------------------------------- 513-3 IP67-------------------------------------

513-3 IP67. . 1. 28.01.2019.pdf [163 KB]

------------------------------------------------------------------------------------

.pdf [334 KB]
.pdf [168 KB]

-------------------------------------- . 01--------------------------------------

. 01. . 4. 21.02.2020.pdf [473 KB]
. 01. . 1. 29.09.2009 .pdf [350 KB]

------------------------------------------------------------------------------------

. 1. 15.08.2008 .pdf [222 KB]
. 4. 06.07.2016 .pdf [216 KB]

------------------------------------------------------------------------------------


-------------------------Ethernet-FX-MM, -SM40, -SM40SA, -SM40SB-------------------------

Ethernet-FX-MM, -SM40, -SM40SA, -SM40SB. . 1. 02.02.2017.pdf [305 KB]
Ethernet-FX-MM, -SM40, -SM40SA, -SM40SB. . 2. 13.12.2019.pdf [305 KB]

---------------------------------------Ethernet-SW8---------------------------------------

Ethernet-SW8. . 2. 02.02.2017.pdf [220 KB]
Ethernet-SW8. . 3. 22.11.2019.pdf [400 KB]

-----------------------------------------LX-300+-----------------------------------------

LX-300+.doc [32 KB]

-----------------------------------OPC -----------------------------------

OPC .pdf [328 KB]

------------------------------------------PProg------------------------------------------

PProg. 2016 .pdf [2 MB]

-----------------------------------------Proxy-2A-----------------------------------------

Proxy-2A .2. 22.12.2004 .pdf [219 KB]

--------------------------Proxy-2A . 01, Proxy-2M, Proxy-2M--------------------------

Proxy-2A . 01, Proxy-2M, Proxy-2M. . 1. 13.12.2019.pdf [312 KB]
Proxy-2A . 01, Proxy-2M, Proxy-2M. . 1. 30.06.2010.pdf [352 KB]

------------------------------Proxy-3A, Proxy-3M, Proxy-3M------------------------------

Proxy-3A, Proxy-3M, Proxy-3M. . 1. 02.12.2019.pdf [386 KB]
Proxy-3A, Proxy-3M, Proxy-3M. . 9. 07.07.2010.pdf [419 KB]
Proxy-3A, Proxy-3M. . 3. 03.08.2005.pdf [355 KB]
Proxy-3A. . 1. 08.10.2004.pdf [344 KB]

------------------------------------Proxy-4E, Proxy-4M------------------------------------

Proxy-4E, Proxy-4M. . 1. 30.03.2020.pdf [354 KB]

-----------------------------------Proxy-5AG, Proxy-5AB-----------------------------------

Proxy-5AG, Proxy-5AB. . 0. 29.01.2019.pdf [278 KB]

--------------------------------------Proxy-5MS-USB--------------------------------------

Proxy-5MS-USB. . 3. 16.12.2019.pdf [136 KB]
Proxy-5MS-USB. . 3. 16.12.2019.pdf [1 MB]

----------------------------------Proxy-5MSG, Proxy-5MSB----------------------------------

Proxy-5MSG, Proxy-5MSB. . 1. 16.12.2019.pdf [283 KB]

--------------------Proxy-KeyAV, Proxy-KeyAH, Proxy-KeyMV, Proxy-KeyMH--------------------

Proxy-KeyAV, Proxy-KeyAH, Proxy-KeyMV, Proxy-KeyMH. 2. . 1. 27.02.2020.pdf[421 KB]

----------------------------------------Proxy-Long----------------------------------------

Proxy-Long . 0.pdf [176 KB]
Proxy-Long .1. 09.10.2007 .pdf [253 KB]

---------------------------------------Proxy-USB----------------------------------------

Proxy-USB-. . 1. 16.12.2019.pdf [241 KB]
Proxy-USB-. . 7. 26.07.2016.pdf [187 KB]

---------------------------------------Proxy-1000---------------------------------------

Proxy-1000. . 1. 17.12.2019.pdf [260 KB]
Proxy-1000 . 11. . 2. 11.10.2007.pdf [287 KB]
Proxy-1000 . 3.1. . 0. 25.01.2006.pdf [247 KB]

---------------------------------ProxyKey-4E, ProxyKey-4M---------------------------------

ProxyKey-4E, ProxyKey-4M. . 1. 01.04.2020.pdf [308 KB]

------------------------RS-FX-MM, RS-FX-SM40, RS-FX-SM40 80------------------------

RS-FX-MM, RS-FX-SM40, RS-FX-SM40 80. . 4. 17.12.2019.pdf [531 KB]
RS-FX-MM, RS-FX-SM40. . 2. 02.02.2017.pdf [284 KB]

----------------------------------------RS232-TTL----------------------------------------

RS232-TTL. . 0. 13.03.2018.pdf [256 KB]
RS232-TTL. . 2. 17.12.2019.pdf [455 KB]

----------------------------------------UProgFree----------------------------------------

UProgFree.pdf [921 KB]

------------------------------------------USB-RS------------------------------------------

USB-RS. . 1. 25.11.2019.pdf [1016 KB]

----------------------------------------USB-RS232----------------------------------------

USB-RS232. . 1. 17.01.2018.pdf [205 KB]
USB-RS232. . 2. 15.11.2019.pdf [376 KB]
USB-RS232. . 0. 26.05.2010.pdf [615 KB]
USB-RS232. . 2. 28.06.2013.pdf [523 KB]

----------------------------------------USB-RS485----------------------------------------

USB-RS485. . 1. 17.01.2018.pdf [256 KB]
USB-RS485. . 2. 18.11.2019.pdf [504 KB]
USB-RS485. . 2. 15.09.2009.pdf [515 KB]
USB-RS485. . 6. 28.06.2013.pdf [517 KB]
USB-RS485. . 8. 15.09.2014.pdf [295 KB]

-------------------------------------- --------------------------------------

.pdf [834 KB]

-------------------------------------- --------------------------------------

(24,32), .pdf [773 KB]
1.20.2. . 1.4. 2017 .pdf [4 MB]
1.20.3. . 1.4. 2019 .pdf [4 MB]
1.20.2. . 1.4. 2017 .pdf [4 MB]
1.20.3. . 1.4. 2019 .pdf [4 MB]
.pdf [6 MB]
. 1.12. 2015 .pdf [24 MB]
. 1.20 2. 2017 .pdf [25 MB]

---------------------------------------- 2000----------------------------------------

2000. . 6. 08.08.2008.pdf [2 MB]

---------------------------------------- ----------------------------------------

.pdf [1 MB]

--------------------------------------------------------------------------------------

. . 1. 25.04.2006.pdf [218 KB]
. . 18. 13.03.2020.pdf [397 KB]

--------------------------------------- . 01---------------------------------------

. 01. . 1. 06.04.2006.pdf [224 KB]
. 01. . 11. 28.06.2016.pdf [247 KB]

--------------------------------------- . 03---------------------------------------

. 03. . 7. 13.03.2020.pdf [541 KB]

---------------------------------34 . 01 214-34--------------------------------

-34.pdf [807 KB]
-34 . 01 . 1.04. . 1. 18.10.2004 .pdf [183 KB]
-34 . 01 . 1.06. . 3. 16.05.2006 .pdf [224 KB]
-34 . 01 . 1.10. . 6. 24.08.2007 .pdf [262 KB]

----------------------------------34-01-01 212-34---------------------------------

-34-01-01 . 1.06. . 10. 16.12.2009 .pdf [256 KB]

----------------------------------34-01-02 212-34---------------------------------

-34-01-02 . 1.20. . 2. 16.12.2009 .pdf [265 KB]

-----------------------------------34-03 212-34----------------------------------

-34-03. . 1.01. . 10. 11.03.2020.pdf [501 KB]

-----------------------------------34-04 212-34----------------------------------

-34-04. . 1.00. . 1. 12.05.2015.pdf [273 KB]
-34-04. . 1.01. . 10. 27.01.2020.pdf [464 KB]

------------------------------------34 212-34-----------------------------------

-34 . 1.00. . 0. 22.03.2010 .pdf [229 KB]

-----------------------------------34-03 212-34----------------------------------

-34-03. . 1.00. . 10. 12.03.2020.pdf [454 KB]

---------------------------------------- 513-3----------------------------------------

513-3 . 1.01. . 4. 15.03.2005 .pdf [169 KB]

------------------------------------ 513-3 . 01------------------------------------

513-3 . 01 . 1.03. . 1. 13.06.2007 .pdf [218 KB]

------------------------------------ 513-3 . 02------------------------------------

513-3 . 02 . 1.03. . 1. 31.10.2007 .pdf [230 KB]

--------------------------------------- 513-3---------------------------------------

513-3. . 1.05. . 19. 11.09.2019.pdf [224 KB]
513-3. . 1.06. . 21. 05.03.2020.pdf [447 KB]

----------------------------------- 513-3 . 01-----------------------------------

513-3 . 01. . 1.01. . 12. 19.07.2016.pdf [284 KB]

--------------------------------- 513-3 . 01 IP67---------------------------------

513-3 . 01 IP67. . 1.00. . 1. 28.01.2019.pdf [193 KB]

------------------------------- 513-3 . 01 . 03-------------------------------

513-3 . 01 . 03. . 1.51. . 20. 10.03.2020.pdf [418 KB]

--------------------------------------- 513-3---------------------------------------

513-3. . 1.01. . 18. 02.04.2020.pdf [508 KB]

------------------------------- -------------------------------

.pdf [212 KB]

------------------------------- -------------------------------

25.03.2015.pdf [2 MB]

-----------------------------------------003.1----------------------------------------

-003.1. . 2. 20.02.2020.pdf [170 KB]

-----------------------------------------103.1----------------------------------------

-103.1. . 2. 20.02.2020.pdf [166 KB]

-----------------------------------------110.1----------------------------------------

-110.1. . 2. 20.02.2020.pdf [166 KB]

-----------------------------------------003.1----------------------------------------

-003.1. . 2. 20.02.2020.pdf [171 KB]

-----------------------------------------003.2----------------------------------------

-003.2. . 1. 20.02.2020.pdf [166 KB]

-----------------------------------------006.1----------------------------------------

-006.1. . 2. 20.02.2020.pdf [166 KB]

-----------------------------------------103.1----------------------------------------

-103.1. . 2. 20.02.2020.pdf [166 KB]

-----------------------------------------106.1----------------------------------------

-106.1. . 2. 20.02.2020.pdf [172 KB]

-----------------------------------------120.1----------------------------------------

-120.1. . 2. 20.02.2020.pdf [166 KB]

-----------------------------------------110.1----------------------------------------

-110.1. . 1. 20.02.2020.pdf [168 KB]

-----------------------------------------130.1----------------------------------------

-130.1. . 1. 20.02.2020.pdf [168 KB]

-----------------------------------------150.1----------------------------------------

-150.1. . 1. 20.02.2020.pdf [169 KB]

-------------------------------------------------------------------------------------

- . 1. 19.06.2003.pdf [208 KB]
- . 5. 25.12.2007.pdf [306 KB]
- . 12. 29.06.2017.pdf [234 KB]
- . 3 . 1. 03.07.2008.pdf [233 KB]
- . 3. . 4. 27.05.2010.pdf [259 KB]

------------------------------------------3-----------------------------------------

-3. . 3. 28.11.2017.pdf [2 MB]
-3. . 8. 03.10.2019.pdf [163 KB]
-3. . 1.05. . 4. 31.10.2017.pdf [1 MB]
-3. . 1.00. . 0. 01.02.2006.pdf [535 KB]
-3. . 1.01. . 1. 07.04.2006.pdf [541 KB]
-3. . 1.02. . 2. 08.02.2008.pdf [587 KB]
-3. . 1.03. . 4. 01.10.2009.pdf [736 KB]
-3. . 1.04. . 6. 04.04.2012.pdf [868 KB]
-3. . 1.05. . 11. 05.01.2016.pdf [963 KB]
-3. . 1.10. . 16. 03.10.2019.pdf [2 MB]

---------------------------------------------------------------------------------

-. . 1.00. . 4. 20.06.2016.pdf [423 KB]
-. . 2.00. . 8. 04.10.2019.pdf [403 KB]

------------------------------------------------------------------------------------

. . 3.0. . 5. 22.01.2018.pdf [424 KB]
. . 3.05. . 12. 04.12.2019.pdf [170 KB]
. . 1.01. . 2. 13.03.2006.pdf [864 KB]
. . 1.01. . 7. 11.05.2012.pdf [1 MB]
. . 2.01. . 10. 12.04.2013.pdf [954 KB]
. . 2.02. . 11. 26.07.2013.pdf [915 KB]
. . 2.03. . 14. 10.12.2014.pdf [1 MB]
. . 2.04. . 15. 18.06.2015.pdf [1 MB]
. . 3.02. . 20. 08.09.2016.pdf [903 KB]
. . 3.03. . 21. 28.12.2016.pdf [906 KB]
. . 3.04. . 22. 13.02.2017.pdf [916 KB]
. . 26. 04.12.2019.pdf [1 MB]

-------------------------------------- . 01--------------------------------------

. 01. . 3. 08.12.2016.pdf [466 KB]
. 01. . 1.01. . 1. 26.08.2009.pdf [384 KB]
. 01. . 1.01. . 5. 16.01.2013.pdf [499 KB]
. 01. . 1.03. . 6. 24.04.2014.pdf [512 KB]
. 01. . 1.04. . 11. 30.08.2016.pdf [558 KB]
. 01. . 1.05. . 14. 15.09.2017.pdf [607 KB]
. 01. . 1.06. . 15. 29.03.2018.pdf [714 KB]
. 01. . 1.07. . 16. 18.06.2016.pdf [425 KB]
. 01. . 1.08. . 17. 14.01.2019.pdf [447 KB]
. 01. . 1.09. . 18. 25.06.2019.pdf [448 KB]

-------------------------------------- . 02--------------------------------------

. 02. . 2. 30.10.2019.pdf [709 KB]

-------------------------------------- . 03--------------------------------------

. 03. . 2. 30.10.2019.pdf [660 KB]

-----------------------------------------300----------------------------------------

2. . 3. 22.01.2020.pdf [3 MB]
. . 2. 25.12.2019.pdf [1 MB]
-300. . 1. 29.11.2019.pdf [1 MB]

----------------------------------------300----------------------------------------

-300-. . 2. 26.12.2019.pdf [280 KB]

-----------------------------------------------------------------------------------

--. . 0. 12.11.2018.pdf [199 KB]
--. . 0. 12.11.2018.pdf [199 KB]

-----------------------------------------------------------------------------------

-. . 3. 17.12.2019.pdf [462 KB]

---------------------------------------------------------------------------

-. . 0. 11.01.2013.pdf [454 KB]
-. . 2. 19.10.2017.pdf [296 KB]
-. . 6. 19.10.2017.pdf [199 KB]
-. . 5. 12.07.2016.pdf [150 KB]

---------------------------------- . 01---------------------------------

- . 01. . 2. 21.01.2020.pdf [178 KB]
- . 01. . 2. 21.01.2020.pdf [183 KB]
- . 01. . 1. 15.01.2020.pdf [1 MB]
- . 01. . 2. 21.01.2020.pdf [181 KB]

------------------------------------------2000------------------------------------------

2000. . 6. 24.11.2016.pdf [150 KB]
2000. . 1.15. 2002 .pdf [443 KB]
2000. . 1.24. .5. 12.01.2005.pdf [762 KB]

-----------------------------------------2000-2-----------------------------------------

2000-2. . 5. 05.02.2019.pdf [1 MB]
2000-2. . 7. 25.01.2018.pdf [158 KB]
2000-2. . 1.02. . 1. 2003 .pdf [454 KB]
2000-2. . 1.05. . 2. 2006 .pdf [608 KB]
2000-2. . 1.07. . 5. 20.12.2006.pdf [675 KB]
2000-2. . 1.10. . 6. 28.07.2008.pdf [932 KB]
2000-2. . 1.15. . 11. 18.03.2010.pdf [1 MB]
2000-2. . 1.15. . 13. 05.12.2012.pdf [1 MB]
2000-2. . 1.20. . 13. 05.12.2012.pdf [1 MB]
2000-2. . 2.01. . 17. 27.10.2015.pdf [1 MB]
2000-2. . 2.20. . 1. 05.02.2019.pdf [1 MB]
2000-2. . 2.50. . 2. 20.11.2019.pdf [2 MB]

--------------------------------2000-4 0104065-4-1--------------------------------

2000-4. . 4. 28.01.2019.pdf [1 MB]
2000-4. . 15. 16.09.2019.pdf [182 KB]
2000-4. . 1.11. . 4. 2002 .pdf [432 KB]
2000-4. . 2.00. . 5. 17.03.2005.pdf [673 KB]
2000-4. . 2.03. . 8. 26.12.2005.pdf [664 KB]
2000-4. . 2.04. . 10. 14.03.2008.pdf [688 KB]
2000-4. . 2.10. . 13. 13.10.2009.pdf [872 KB]
2000-4. . 3.00, 3.01. . 23. 28.07.2016.pdf [927 KB]
2000-4. . 3.50. . 25. 18.10.2016.pdf [1 MB]
2000-4. . 3.70, 3.71. . 32. 19.06.2019.pdf [1 MB]

----------------------------------------2000-Adem----------------------------------------

2000-Adem. . 1.02. . 2. 30.11.2009.pdf [603 KB]
2000-Adem. . 1.05. . 6. 04.02.2013.pdf [814 KB]

-----------------------------------2000-BIOAccess-F18-----------------------------------

2000-BIOAccess-F18. . 2. 31.10.2017.pdf [238 KB]
2000-BIOAccess-F18. . 4. 31.10.2017.pdf [138 KB]
2000-BIOAccess-F18. . 4. 05.03.2015.pdf [2 MB]

-----------------------------------2000-BIOAccess-F22-----------------------------------

2000-BIOAccess-F22. . 1. 19.12.2019.pdf [546 KB]

------------------------------------2000-BIOAccess-F4------------------------------------

2000-BIOAccess-F4. . 1. 01.08.2013.pdf [216 KB]
2000-BIOAccess-F4. . 2. 01.08.2013.pdf [2 MB]

------------------------------------2000-BIOAccess-F8------------------------------------

2000-BIOAccess-F8. . 1. 01.08.2013.pdf [215 KB]
2000-BIOAccess-F8. . 3. 01.08.2013.pdf [2 MB]

----------------------------------2000-BIOAccess-MA300----------------------------------

2000-BIOAccess-MA300. . 2. 31.10.2017.pdf [475 KB]
2000-BIOAccess-MA300. . 7. 20.02.2020.pdf [260 KB]
2000-BIOAccess-MA300. . 7. 20.02.2020.pdf [2 MB]

---------------------------------2000-BIOAccess-SB101TC---------------------------------

2000-BIOAccess-SB101TC. . 1. 19.12.2019.pdf [441 KB]

----------------------------------2000-BIOAccess-ZK4500----------------------------------

2000-BIOAccess-ZK4500. . 3. 27.02.2020.pdf [139 KB]

--------------------------------------2000-Ethernet--------------------------------------

2000-Ethernet. . 4. 25.10.2017.pdf [483 KB]
2000-Ethernet. . 7. 25.10.2017.pdf [194 KB]
2000-Ethernet. . 2. 04.12.2015.pdf [962 KB]
2000-Ethernet. . 3. 04.10.2019.pdf [1 MB]
2000-Ethernet. . 5. 25.10.2017.pdf [1 MB]
2000-Ethernet. . 1.04. . 4. 12.05.2008.pdf [416 KB]
2000-Ethernet. . 1.15. . 10. 28.10.2010.pdf [493 KB]
2000-Ethernet. . 2.15. . 13. 28.10.2010.pdf [601 KB]
2000-Ethernet. . 2.15. . 17. 18.08.2014.pdf [813 KB]

-------------------------------2000-PGE, 2000-PGE . 01-------------------------------

2000-PGE, 2000-PGE . 01. . 1. 16.01.2020.pdf [1 MB]
2000-PGE. . 1.2. . 13.pdf [1 MB]

---------------------------------------2000-Proxy---------------------------------------

2000-Proxy. . 1. 19.02.2020.pdf [233 KB]
2000-Proxy. . 13. 27.07.2016.pdf [198 KB]
2000-Proxy. . 3. 22.12.2004.pdf [201 KB]
2000-Proxy. . 7. 11.10.2010.pdf [273 KB]

--------------------------------------2000-Proxy-H--------------------------------------

2000-Proxy-H. . 1. 20.02.2020.pdf [236 KB]
2000-Proxy-H. . 1. 18.10.2004.pdf [194 KB]
2000-Proxy-H. . 4. 11.10.2010.pdf [259 KB]

----------------------------------------2000-USB----------------------------------------

2000-USB. . 3. 31.10.2017.pdf [1 MB]
2000-USB. . 0. 23.03.2018.pdf [453 KB]
2000-USB. . 4. 22.11.2019.pdf [637 KB]
2000-USB. . 1. 22.09.2006.pdf [1 MB]
2000-USB. . 4. 25.05.2010.pdf [633 KB]
2000-USB. . 6. 28.12.2012.pdf [1 MB]

----------------------------------------2000-WiFi----------------------------------------

2000-WiFi. . 0. 16.01.2019.pdf [1 MB]

----------------------------------------2000-----------------------------------------

2000-. . 3. 28.05.2019.pdf [130 KB]
2000-. . 4. 28.05.2019.pdf [3 MB]

------------------------------------2000-1 . 01------------------------------------

2000-1 . 01. . 1.10. . 9. 24.01.2020.pdf [364 KB]

------------------------------------2000-1 . 02------------------------------------

2000-1 . 02. . 1.07. . 3. 04.03.2005.pdf [165 KB]
2000-1 . 02. . 1.08. . 5. 17.10.2005.pdf [169 KB]
2000-1 . 02. . 1.10. . 14. 22.07.2016.pdf [189 KB]
2000-1 . 02. . 1.10. . 16. 24.01.2020.pdf [366 KB]
2000-1 . 02. . 1.10. . 7. 24.04.2008.pdf [191 KB]

------------------------------2000-1 . 02 102-20------------------------------

2000-1 . 02 102-20.pdf [325 KB]

------------------------------------2000-1 . 03------------------------------------

2000-1 . 03. . 1.08. . 1. 01.03.2006.pdf [171 KB]
2000-1 . 03. . 1.10. . 13. 19.02.2020.pdf [366 KB]
2000-1 . 03. . 1.10. . 3. 27.02.2009.pdf [236 KB]

------------------------------------2000-1 . 04------------------------------------

2000-1 . 04. . 1.00. . 1. 08.09.2009.pdf [192 KB]
2000-1 . 04. . 1.00. . 9. 18.12.2019.pdf [345 KB]

----------------------------------------2000-2----------------------------------------

2000-2 . 1.07. . 3. 07.07.2003 .pdf [147 KB]
2000-2 . 6. 15.10.2013 .pdf [252 KB]

------------------------------------2000-2 . 01------------------------------------

2000-2 . 01 . 2.00. . 1. 24.03.2005 .pdf [211 KB]
2000-2 . 01 . 2.01. . 4. 16.01.2006 .pdf [263 KB]
2000-2 . 01 . 2.05. . 5. 16.01.2006 .pdf [268 KB]
2000-2 . 01 . 2.10. . 7. 24.01.2008 .pdf [281 KB]

------------------------------------2000-2 . 02------------------------------------

2000-2 . 02. . 1.02. . 16. 10.10.2019.pdf [205 KB]
2000-2 . 02. . 1. 01.11.2010.pdf [223 KB]

----------------------------------------2000-8----------------------------------------

2000-8. . 2. 05.02.2019.pdf [536 KB]
2000-8. . 1.02. . 3. 28.06.2004.pdf [193 KB]
2000-8. . 1.03. . 5. 11.09.2006.pdf [346 KB]
2000-8. . 1.10. . 21. 05.02.2019.pdf [258 KB]
2000-8. . 1.10. . 9. 20.10.2009.pdf [336 KB]

----------------------------------------2000-----------------------------------------

2000-. . 5. 23.10.2018.pdf [1 MB]
2000-. . 9. 21.05.2019.pdf [158 KB]
2000-. . 2.00. . 0. 20.12.2004.pdf [970 KB]
2000-. . 2.04. . 5. 15.02.2006.pdf [696 KB]
2000-. . 2.06. . 7. 22.01.2007.pdf [684 KB]
2000-. . 2.07. . 8. 01.02.2008.pdf [693 KB]
2000-. . 3.00. . 1. 08.02.2008.pdf [972 KB]
2000-. . 3.01. . 2. 11.06.2009.pdf [1 MB]
2000-. . 3.02. . 3. 12.01.2010..pdf [1 MB]
2000-. . 3.02. . 8. 27.08.2013.pdf [1 MB]
2000-. . 3.05. . 9. 15.01.2014.pdf [1 MB]
2000-. . 3.06. . 10. 22.04.2014.pdf [1 MB]
2000-. . 3.07. . 11. 12.11.2014.pdf [1 MB]
2000-. . 3.08. . 13. 11.06.2015.pdf [1 MB]
2000-. . 3.50. . 14. 11.04.2016.pdf [2 MB]
2000-. . 3.51. . 15. 27.09.2016.pdf [1 MB]
2000-. . 3.52 (3.53). . 22. 30.09.2019.pdf [2 MB]

----------------------------------------2000-2----------------------------------------

2000-2 . 1.00. . 1. 02.07.2007 .pdf [267 KB]
2000-2 . 1.01. . 2. 12.08.2008 .pdf [267 KB]

---------------------------------------2000- SMD---------------------------------------

2000- SMD. . 1.12. . 4. 11.07.2007.pdf [295 KB]
2000- SMD. . 1.12. . 9. 24.04.2012.pdf [381 KB]
2000- SMD. . 2.23. . 11. 01.03.2013.pdf [567 KB]
2000- SMD. . 2.25. . 17. 27.07.2016.pdf [389 KB]
2000- SMD. . 17. 27.07.2016.pdf [389 KB]
2000- SMD. . 18. 02.11.2016.pdf [412 KB]

-------------------------------------2000- . 01-------------------------------------

2000- . 01. . 1.01. . 0. 27.04.2006.pdf [278 KB]
2000- . 01. . 1.01. . 4. 16.07.2013.pdf [378 KB]

--------------------------------2000-, 2000- . 02--------------------------------

2000- 2001.pdf [145 KB]
2000-. . 4. 24.12.2003.pdf [205 KB]
2000-. . 5. 04.05.2005.pdf [297 KB]
2000- . 02. . 2.23. . 1. 29.03.2013.pdf [571 KB]
2000- . 02. . 2.25. . 17. 27.07.2016.pdf [413 KB]
2000- . 02. . 2.40. . 20. 12.01.2017.pdf [413 KB]
2000- . 02. . 20. 11.01.2017.pdf [413 KB]
2000- . 02. . 5. 27.07.2016.pdf [413 KB]
2000- . 02. . 6. 17.11.2016.pdf [405 KB]
2000-, 2000- . 02. . 2.45. . 27. 21.11.2019.pdf [649 KB]
2000-, 2000- . 02. . 22. 06.10.2017.pdf [481 KB]
2000-, 2000- . 02. . 24. 13.12.2017.pdf [412 KB]
2000-. . 20. 14.07.2017.pdf [406 KB]

----------------------------------------2000-----------------------------------------

2000-. . 2.45. . 4. 06.05.2020.pdf [731 KB]
2000-. . 1. 01.03.2018.pdf [445 KB]
2000-. . 2.21. . 3. 16.09.2009.pdf [332 KB]
2000-. . 2.22. . 6. 22.11.2012.pdf [428 KB]
2000-. . 13. 22.07.2016.pdf [566 KB]
2000-. . 14. 21.10.2016.pdf [444 KB]
2000-. . 15. 23.06.2017.pdf [436 KB]
2000-. . 16. 06.10.2017.pdf [438 KB]
2000-. . 18. 06.10.2017.pdf [440 KB]
2000-. . 8. 12.07.2013.pdf [461 KB]

--------------------------------------2000----------------------------------------

2000--. . 9. 16.08.2019.pdf [813 KB]
2000--. . 4. 16.08.2019.pdf [125 KB]

-----------------------------------------2000------------------------------------------

2000-. . 7. 20.02.2020.pdf [396 KB]
2000-. . 0. 31.08.2007.pdf [294 KB]
2000-. . 2. 18.01.2010.pdf [280 KB]

-----------------------2000-, 2000- . 01, 2000- . 02-----------------------

2000-. 2009 .pdf [1 MB]
2000-, 2000- . 01, 2000- . 02. . 1.00. . 1. 26.10.2009.pdf [206 KB]
2000-, 2000- . 01, 2000- . 02. . 10. 13.03.2020.pdf [361 KB]

-------------------------------2000-, C2000- . 01-------------------------------

2000-, C2000- . 01. . 1. 28.02.2020.pdf [1 MB]

-----------------------------------------2000------------------------------------------

2000-. . 3. . 5. 12.03.2020.pdf [147 KB]

-----------------------------------------2000------------------------------------------

2000-.pdf [106 KB]
2000-.pdf [153 KB]

-------------------------------------2000- . 02-------------------------------------

2000- . 02.pdf [128 KB]
2000- . 02. . 6. 17.03.2020.pdf [243 KB]
2000- . 02.pdf [74 KB]

-------------------------------------2000- . 03-------------------------------------

2000- . 03. . 5. 02.04.2020.pdf [802 KB]
2000- . 03. . 0. 04.05.2008.pdf [294 KB]
2000- . 03. . 2. 18.12.2009.pdf [339 KB]

-------------------------------------2000- . 04-------------------------------------

2000- . 02, 2000- . 04. . 2. 10.11.2014.pdf [270 KB]
2000-, 2000- . 02, 2000- . 04.pdf [613 KB]
2000- . 04. . 1. 17.03.2020.pdf [209 KB]

-----------------------------------------2000------------------------------------------

2000- . 1.00.pdf [148 KB]

-------------------------------------2000- .01-------------------------------------

2000- . 01 . 1.01. 27.04.2006 .pdf [208 KB]

-------------------------------------2000- .02-------------------------------------

2000- . 02 . 2.01. . 1. 24.01.2008 .pdf [259 KB]
2000- . 02 . 2.02. . 2. 07.10.2008 .pdf [255 KB]

--------------------------------------2000--02-02--------------------------------------

2000--02-02 . 1.00. 28.09.2010 .pdf [258 KB]

---------------------------------------2000--03---------------------------------------

2000--03. . 1.10. . 9. 12.03.2020.pdf [517 KB]

--------------------------------------2000---03--------------------------------------

2000---03. . 1.10. . 8. 12.03.2020.pdf [502 KB]

----------------------------------------2000-----------------------------------------

2000-. . 1.12. . 8. 30.01.2020.pdf [519 KB]

----------------------------------------2000-----------------------------------------

2000-. . 1. 16.04.2018.pdf [1 MB]
2000-. . 3. 15.04.2020.pdf [1 MB]

-----------------------------------------2000------------------------------------------

2000-. . 3. 27.02.2019.pdf [648 KB]
2000-. . 6. 18.09.2017.pdf [133 KB]
2000-. . 2.03. . 7. 10.02.2009.pdf [403 KB]
2000-. . 2.06. . 2. 27.02.2019.pdf [597 KB]
2000-. . 2.06. . 8. 07.10.2009.pdf [430 KB]
2000-. . 2. 11.03.2003.pdf [823 KB]

-----------------------------------------2000------------------------------------------

2000-. . 1. 01.11.2017.pdf [614 KB]
2000-. . 4. 01.11.2017.pdf [151 KB]
2000-. . 6. 18.10.2019.pdf [161 KB]
2000-. . 16. 22.02.2018.pdf [1 MB]
2000-. . 19. 18.10.2019.pdf [669 KB]
2000-.pdf [178 KB]

----------------------------------------2000-----------------------------------------

2000-. . 14. 17.12.2019.pdf [179 KB]
2000-. . 1.17. . 5. 13.01.2004.pdf [392 KB]
2000-. . 1.21. . 10. 18.09.2006.pdf [392 KB]
2000-. . 1.21. . 9. 15.11.2005.pdf [386 KB]
2000-. . 1.33. . 13. 02.07.2007.pdf [602 KB]
2000-. . 1.36. . 15. 26.11.2007.pdf [600 KB]
2000-. . 1.46. . 22. 17.05.2010.pdf [954 KB]
2000-. . 1.46. . 25. 26.07.2012.pdf [974 KB]
2000-. . 2.04. . 33. 04.09.2014.pdf [1 MB]
2000-. . 2.10. . 34. 11.03.2015.pdf [1 MB]
2000-. . 2.12. . 40. 11.08.2016.pdf [920 KB]
2000-. . 2.14. . 41. 18.10.2016.pdf [958 KB]
2000-. . 2.20. . 43. 18.04.2017.pdf [1 MB]
2000-. . 2.22. . 46. 06.12.2017.pdf [1 MB]
2000-. . 2.26. . 51. 17.12.2019.pdf [1 MB]

---------------------------------------2000--2---------------------------------------

2000--2. . 2. 05.02.2019.pdf [677 KB]
2000--2. . 10. 05.02.2019.pdf [157 KB]
2000--2. . 1.00. . 0. 09.04.2014.pdf [1 MB]
2000--2. . 1.02. . 4. 27.11.2014.pdf [1 MB]
2000--2. . 1.10. . 3. 15.04.2015.pdf [1 MB]
2000--2. . 1.12. . 9. 03.08.2016.pdf [917 KB]
2000--2. . 1.14. . 10. 18.10.2016.pdf [925 KB]
2000--2. . 1.20. . 13. 23.03.2017.pdf [1014 KB]
2000--2. . 1.21. . 16. 13.12.2017.pdf [1 MB]
2000--2. . 1.26. . 19. 05.02.2019.pdf [1 MB]

----------------------------------------2000-----------------------------------------

2000-. . 3. 13.02.2019.pdf [347 KB]
2000-. . 13. 21.11.2019.pdf [175 KB]
2000-. . 1.04. . 4. 07.09.2004.pdf [278 KB]
2000-. . 1.05. . 6. 03.02.2006.pdf [311 KB]
2000-. . 1.06. . 7. 16.03.2007.pdf [332 KB]
2000-. . 1.09. . 12. 10.11.2009.pdf [394 KB]
2000-. . 1.09. . 14. 20.10.2011.pdf [497 KB]
2000-. . 2.02. . 18. 01.04.2014.pdf [537 KB]
2000-. . 2.04. . 21. 14.08.2014.pdf [531 KB]
2000-. . 2.20. . 25. 23.03.2015.pdf [535 KB]
2000-. . 3.00. . 26. 23.03.2015.pdf [535 KB]
2000-. . 3.01. . 28. 09.12.2015.pdf [541 KB]
2000-. . 3.02. . 32. 01.11.2017.pdf [536 KB]
2000-. . 3.03. . 36. 13.09.2019.pdf [813 KB]
2000-. . 3.04. . 38. 21.11.2019.pdf [814 KB]

-----------------------------------------2000------------------------------------------

2000-. . 1. 01.11.2017.pdf [344 KB]
2000-. . 6. 01.11.2017.pdf [180 KB]
2000-. . 8. 21.10.2019.pdf [175 KB]
2000-. . 1.03. . 17. 21.10.2019.pdf [832 KB]
2000-. . 1.03. . 4. 23.03.2005.pdf [764 KB]
2000-. . 15. 01.11.2017.pdf [979 KB]

----------------------------------------2000-----------------------------------------

2000-. . 1.00. . 4. 05.07.2018.pdf [118 KB]

----------------------------------------2000-----------------------------------------

2000-. . 1.00. . 5. 14.02.2020.pdf [288 KB]

--------------------------------------2000---------------------------------------

2000-. . 1. 16.10.2015.pdf [368 KB]
2000-. . 4. 14.03.2017.pdf [179 KB]
2000-. . 1.00. . 0. 02.10.2014.pdf [813 KB]
2000-. . 1.01. . 4. 02.08.2016.pdf [642 KB]
2000-. . 1.30. . 5. 14.03.2017.pdf [1 MB]
2000-. . 1.41. . 1. 29.09.2017.pdf [2 MB]

--------------------------------2000-, 2000- . 01--------------------------------

2000-. . 3. 18.12.2017.pdf [454 KB]
2000-, 2000- . 01. . 1.00. . 6. 30.01.2006.pdf [290 KB]
2000-, 2000- . 01. . 1.01. . 7. 22.05.2006.pdf [233 KB]
2000-, 2000- . 01. . 1.02. . 13. 14.07.2010.pdf [273 KB]
2000-, 2000- . 01. . 2. 31.07.2003.pdf [194 KB]
2000-. . 25. 18.12.2017.pdf [319 KB]
2000-. . 28. 22.11.2019.pdf [618 KB]

----------------------------------------2000-----------------------------------------

2000-. . 2. 14.04.2015.pdf [300 KB]
2000-.pdf [552 KB]
2000-. . 5. 13.03.2020.pdf [215 KB]

---------------------------------------2000-----------------------------------------

2000--. . 6. 10.03.2020.pdf [224 KB]

---------------------------------------2000----------------------------------------

2000-. . 3. 12.03.2020.pdf [287 KB]

--------------------------------------2000----------------------------------------

2000--. . 3. 12.03.2020.pdf [252 KB]

----------------------------------------2000-----------------------------------------

2000-. 2019 .pdf [1 MB]

-----------------------------------------2000------------------------------------------

2000-. . 1.0. . 3. 19.02.2020.pdf [330 KB]

-----------------------------------------2000------------------------------------------

2000-. . 1. 16.02.2015.pdf [388 KB]
2000-. . 8. 07.06.2017.pdf [191 KB]
2000-. . 1.06. . 5. 14.01.2013.pdf [630 KB]
2000-. . 1.22. . 8. 22.08.2014.pdf [962 KB]
2000-. . 1.23. . 9. 02.10.2014.pdf [963 KB]
2000-. . 1.24. . 12. 06.09.2015.pdf [971 KB]
2000-. . 1.26. . 17. 07.06.2017.pdf [769 KB]
2000-. . 1.29. . 18. 21.09.2017.pdf [774 KB]
2000-. . 1.31. . 1. 06.02.2018.pdf [1 MB]
2000-. . 1.32. . 5. 01.11.2019.pdf [1 MB]

-----------------------------------------2000------------------------------------------

2000-. . 1.01. . 0. 03.03.2006.pdf [281 KB]
2000-. . 1.01. . 6. 25.01.2013.pdf [412 KB]
2000-. . 2.00. . 7. 03.02.2015.pdf [888 KB]
2000-. . 2.01. . 13. 20.06.2016.pdf [393 KB]
2000-. . 2.50. . 12. 10.05.2016.pdf [1 MB]
2000-. . 2.60. . 15. 03.10.2019.pdf [383 KB]

-----------------------------------------2000------------------------------------------

2000-. . 3. 30.01.2020.pdf [392 KB]
2000-.pdf [145 KB]

-------------------------------2000-, 2000- . 01-------------------------------

2000-, 2000- . 01. . 3. 27.10.2017.pdf [364 KB]
2000-, 2000- . 01. . 4. 05.02.2019.pdf [516 KB]
2000-, 2000- . 01. . 5. 27.10.2017.pdf [180 KB]
2000-, 2000- . 01. . 7. 31.03.2020.pdf [181 KB]
2000-, 2000- . 01. . 1.02. . 8. 19.12.2009.pdf [486 KB]
2000-, 2000- . 01. . 24. 27.10.2017.pdf [586 KB]
2000-, 2000- . 01. . 27. 31.03.2020.pdf [579 KB]

---------------------------------2000- . 01 (IP68)---------------------------------

2000- . 01 (IP68). . 1.00. . 1. 18.20.2020.pdf [309 KB]

-----------------------2000- . 04, . 05, . 06, . 07-----------------------

2000- . 04, . 05, . 06, . 07. . 1.00. . 2. 12.03.2020.pdf [418 KB]

-------------------------------------2000- -------------------------------------

2000- . . 1.00. . 2. 28.02.2020.pdf [352 KB]
2000- . . 1.00. . 0. 01.04.2008.pdf [235 KB]
2000- . . 1.00. . 1. 06.05.2009.pdf [237 KB]

-------------------------------2000-, 2000- . 01-------------------------------

2000-, 2000- . 01. . 1.04. . 2. 14.02.2020.pdf [334 KB]
2000-. . 1.02. . 4. 16.03.2005.pdf [191 KB]
2000-. . 1.03. . 14. 11.02.2015.pdf [269 KB]
2000-. . 1.03. . 6. 18.07.2005.pdf [192 KB]
2000-. . 1.03. . 8. 14.08.2009.pdf [214 KB]

----------------------------------------2000-1----------------------------------------

2000-1. . 3. 05.02.2019.pdf [519 KB]
2000-1. . 11. 17.12.2019.pdf [186 KB]
2000-1. . 1.30. . 0. 27.04.2004.pdf [248 KB]
2000-1. . 1.60. . 22. 17.12.2019.pdf [643 KB]

------------------------------------2000-1 . 01------------------------------------

2000-1 . 01. . 3. 25.09.2019.pdf [327 KB]
2000-1 . 01. . 13. 17.12.2019.pdf [212 KB]
2000-1 . 01. . 1.30. . 1. 08.08.2005.pdf [276 KB]
2000-1 . 01. . 1.60. . 25. 17.12.2019.pdf [653 KB]

----------------------------------------2000-2----------------------------------------

2000-2. . 1.00.pdf [192 KB]
2000-2. . 1.01. . 6. 16.10.2009.pdf [335 KB]
2000-2. . 1.12. . 21. 04.02.2020.pdf [489 KB]
2000-2. . 17. 25.07.2016.pdf [284 KB]

------------------------------------2000-2 . 02------------------------------------

2000-2 . 02. . 5. 13.06.2018.pdf [1 MB]
2000-2 . 02. . 1.01. . 2. 25.12.2012.pdf [441 KB]
2000-2 . 02. . 1.02. . 3. 08.11.2013.pdf [432 KB]
2000-2 . 02. . 1.10. . 11. 05.11.2018.pdf [358 KB]
2000-2 . 02. . 1.11. . 13.pdf [623 KB]

-------------------------------2000-4-24, 2000-4-220-------------------------------

2000-4-220. . 4. 12.02.2019.pdf [278 KB]
2000-4-24. . 5. 19.12.2019.pdf [542 KB]
2000-4. . 2.1. 2016 .pdf [4 MB]
2000-4-220. . 1.15. . 12. 19.12.2019.pdf [1 MB]
2000-4-24. . 12. 19.12.2019.pdf [1 MB]
2000-4-220. . 1.12. . 16. 30.05.2018.pdf [415 KB]

---------------------2000--101--, 2000--101------------------------

2000--101--, ---. . 1.01. . 3. 07.08.2019.pdf [466 KB]

--------------------------2000--207 200 330-3-3--------------------------

2000--207 200. . 1.01. . 3. 27.02.2018.pdf [276 KB]

---------------2000--512-Exd---, ---, ---, ------------------

2000--512-Exd---, -, ---, -. . 1.01. . 1. 15.10.2018.pdf[915 KB]

------------------------2000--512-Exd-()--01(02)(03)------------------------

2000--512-Exd-()--01(02)(03). . 1. 15.10.2018.pdf [688 KB]

-------------------------------2000--607 329-330-------------------------------

2000--607 329-330. . 1.01. . 0. 30.01.2017.pdf [387 KB]

--------------------2000--607-Exd-, 2000--607-Exd-H--------------------

2000--607-Exd-, -Exd-H. . 1.00. . 2. 17.04.2017.pdf [495 KB]

----------------------------------2000--607-Exi----------------------------------

2000--607-Exi. . 1.01. . 0. 30.01.2017.pdf [460 KB]

-------------------------------2000--608 329-330-------------------------------

2000--608. . 1.01. . 0. 30.01.2017.pdf [386 KB]

----------------------------------2000--608-Exi----------------------------------

2000--608-Exi. . 1.01. . 0. 30.01.2017.pdf [399 KB]

------------------------------------2000--------------------------------------

2000--. . 1. 18.01.2018.doc [798 KB]

-----------------------------------------2000------------------------------------------

2000-.pdf [352 KB]
2000- . 3. 14.06.2005 .pdf [393 KB]
2000-.pdf [173 KB]

-------------------------------------2000- . 02-------------------------------------

2000- . 02. . 0. 18.04.2006.pdf [357 KB]
2000- . 02. . 3. 12.03.2020.pdf [704 KB]

-------------------------------------2000- . 03-------------------------------------

2000- . 03. . 7. 13.03.2020.pdf [440 KB]

----------------------------------------2000-----------------------------------------

2000-. . 3. 02.04.2020.pdf [421 KB]

---------------------------------2000-, 2000- . 01---------------------------------

1 2000-, 2000- .01 . 1.20. .7. 16.02.2010 .pdf [586 KB]
2 2000-, 2000- .01 . 1. 16.02.2010 .pdf [436 KB]

----------------------------------------2000-----------------------------------------

2000-. . 2. 14.04.2015.pdf [272 KB]
2000-.pdf [98 KB]
2000-. . 5. 17.03.2020.pdf [227 KB]
2000-.pdf [73 KB]

------------------------------------------2000------------------------------------------

2000. . 2. 11.10.2017.pdf [380 KB]
2000. . 6. 11.10.2017.pdf [173 KB]
2000. . 9. 18.10.2019.pdf [173 KB]
2000. . 2.02. . 1. 25.02.2005.pdf [909 KB]
2000. . 2.03. . 2. 24.03.2006.pdf [1019 KB]
2000. . 2.03. . 3. 14.01.2008.pdf [1 MB]
2000. . 2.04. . 5. 18.09.2009.pdf [1 MB]
2000. . 2.04. . 6. 29.12.2010.pdf [1008 KB]
2000. . 2.05. . 8. 29.06.2011.pdf [1 MB]
2000. . 2.06. . 9. 16.08.2013.pdf [2 MB]
2000. . 2.07. . 11. 24.09.2015.pdf [1 MB]
2000. . 3.00. . 14. 25.02.2016.pdf [1 MB]
2000. . 3.01. . 15. 02.03.2016.pdf [1 MB]
2000. . 3.02. . 17. 29.06.2016.pdf [1 MB]
2000. . 3.03. . 19. 11.10.2017.pdf [1 MB]
2000. . 3.04. . 20. 16.12.2017.pdf [2 MB]
2000. . 4.10. . 22. 28.06.2018.pdf [1 MB]
2000. . 4.11. . 24. 01.10.2018.pdf [1 MB]
2000. . 4.12. . 26. 18.10.2019.pdf [1 MB]

------------------------------------------2000------------------------------------------

2000. . 7. 11.06.2019.pdf [4 MB]

---------------------------------------2000-32---------------------------------------

2000-32. . 6. 14.03.2018.pdf [179 KB]

------------------------------2000-, C2000- . 01------------------------------

2000-, C2000- . 01. . 0. 02.07.2019.pdf [178 KB]

----------------------------------------2000-----------------------------------------

2000-. . 5. 27.04.2020.pdf [283 KB]

----------------------------------------2000-----------------------------------------

2000-. . 10. 20.02.2020.pdf [268 KB]

----------------------------------------2000-----------------------------------------

2000-. . 8. 03.04.2020.pdf [297 KB]

------------------------------------2000- . 02------------------------------------

2000- . 02. . 5. 27.04.2020.pdf [272 KB]

----------------------------------------2000-----------------------------------------

2000-. . 12. 20.02.2020.pdf [269 KB]

----------------------------------------2000-----------------------------------------

2000-. . 11. 18.02.2020.pdf [261 KB]

----------------------------------------2000-----------------------------------------

2000-. . 4. 18.02.2020.pdf [266 KB]

---------------------------------------2000----------------------------------------

2000-. . 1. 27.04.2020.pdf [305 KB]

--------------------------------------2000----------------------------------------

2000--. . 2. 28.04.2020.pdf [339 KB]

----------------------------------------2000-----------------------------------------

2000-. . 7. 20.02.2020.pdf [260 KB]

------------------------------------2000- . 01------------------------------------

2000- . 01. . 8. 19.02.2020.pdf [270 KB]

---------------------------------------2000----------------------------------------

2000-. . 3. 03.03.2020.pdf [171 KB]

-----------------------------------2000- . 01-----------------------------------

2000- . 01. . 1. 03.03.2020.pdf [172 KB]

-----------------------------------2000- . 02-----------------------------------

2000- . 02. . 3. 03.03.2020.pdf [170 KB]

--------------------------------------2000---------------------------------------

2000-. . 7. 19.02.2020.pdf [295 KB]

----------------------------------------2000-----------------------------------------

2000-. . 6. 01.06.2018.pdf [150 KB]

----------------------------------------2000-----------------------------------------

2000-. . 1. 11.10.2018.pdf [185 KB]

----------------------------------------2000-----------------------------------------

2000-. . 8. 27.04.2020.pdf [274 KB]

-----------------------------------------2000-----------------------------------------

2000. . 1.00. . 14. 12.03.2020.pdf [370 KB]
2000. . 1.00. . 2. 02.12.2008.pdf [218 KB]

-------------------------------- -127 . 01--------------------------------

-127 . 01. . 1.pdf [525 KB]

-------------------------------- -127 . 02--------------------------------

-127 . 02. . 1.pdf [381 KB]

-------------------------------- -512 . 01--------------------------------

-512 . 01. . 1.pdf [526 KB]

-------------------------------- -512 . 02--------------------------------

-512 . 02. . 1.pdf [382 KB]

---------------------------------- 1024 . 01----------------------------------

1024 . 01. . 1.pdf [447 KB]

---------------------------------- 1024 . 02----------------------------------

1024 . 02. . 1.pdf [345 KB]

---------------------------------- 127 . 01----------------------------------

127 . 01. . 0. 10.03.2020.pdf [509 KB]

---------------------------------- 127 . 02----------------------------------

127 . 02. . 0. 12.03.2020.pdf [451 KB]

---------------------------------- 512 . 01----------------------------------

512 . 01. . 0. 11.03.2020.pdf [505 KB]

---------------------------------- 512 . 02----------------------------------

512 . 02. . 1.pdf [345 KB]

---------------------------------- 127 . 01----------------------------------

127 . 01. . 1.pdf [523 KB]

---------------------------------- 127 . 02----------------------------------

127 . 02. . 1.pdf [380 KB]

---------------------------------- 512 . 01----------------------------------

512 . 01. . 1.pdf [524 KB]

---------------------------------- 512 . 02----------------------------------

512 . 02. . 1.pdf [381 KB]

-----------------------------------------10----------------------------------------

-10. . 6. 11.03.2019.pdf [1 MB]
-10. . 16. 11.03.2019.pdf [210 KB]
-10. . 1.03. . 6. 19.09.2014.pdf [1 MB]
-10. . 1.00. .2. 30.06.2009.pdf [688 KB]
-10. . 1.01. . 3. 30.06.2009.pdf [695 KB]
-10. . 1.02. . 4. 28.12.2009.pdf [696 KB]
-10. . 1.03. . 13. 19.09.2014.pdf [888 KB]
-10. . 1.10. . 14. 16.03.2015.pdf [896 KB]
-10. . 1.11. . 19. 03.12.2015.pdf [926 KB]
-10. . 1.12. . 0. 28.10.2019.pdf [1 MB]
-10. . 1.12. . 1. 20.11.2019.pdf [1 MB]

----------------------------20 . 02 0104065-20-1---------------------------

-20 . 02 . 2.10. 2004 .pdf [575 KB]
-20 . 02 . 2.11.pdf [596 KB]

----------------------------20 . 04 0104065-20-1---------------------------

-20 . 04. . 2.11.pdf [1 MB]

-----------------------------------------20----------------------------------------

-20. . 2. 01.03.2017.pdf [844 KB]
-20. . 8. 01.03.2017.pdf [180 KB]
-20. . 1.00. . 0. 11.04.2006.pdf [649 KB]
-20. . 1.01 1. . 6. 22.08.2011.pdf [889 KB]
-20. . 1.01. . 1. 12.12.2006.pdf [901 KB]
-20. . 1.01. . 4. 22.12.2009.pdf [790 KB]
-20. . 1.03. . 12. 17.05.2016.pdf [841 KB]
-20. . 2.00. . 1. 20.11.2019.pdf [2 MB]
-20. . 2.10. . 2. 11.03.2020.pdf [3 MB]

-----------------------20, -20 . 01, -20 SMD----------------------

-20, -20 . 01. . 52. 23.10.2018.pdf [1 MB]
-20, -20 . 01. . 58. 17.01.2018.pdf [202 KB]
-20 . 01, -20 SMD. . 2.02. . 4. 02.03.2005.pdf [529 KB]
-20 . 01, -20 SMD. . 2.03. . 5. 03.10.2006.pdf [608 KB]
-20 . 01, -20 SMD. . 2.04. . 7. 26.12.2007.pdf [863 KB]
-20 . 01, -20 SMD. . 2.05. . 10. 05.07.2010.pdf [1 MB]
-20 . 01, -20 SMD. . 2.05. . 17. 11.02.2015.pdf [817 KB]
-20, -20 . 01. . 3.00. . 57. 14.11.2017.pdf [947 KB]
-20, -20 . 01. . 3.01. . 1. 21.10.2019.pdf [1 MB]
-20. . 1.70. . 16. 20.12.2004.pdf [500 KB]

---------------------------------------2--------------------------------------

-2.pdf [422 KB]

---------------------------------------3--------------------------------------

-3.pdf [205 KB]

--------------------------------------- 513-3---------------------------------------

513-3. . 6. 11.03.2020.pdf [618 KB]

----------------------------------- 513-3 . 01-----------------------------------

513-3 . 01. . 1.10. . 3. 11.03.2020.pdf [374 KB]

----------------------------------- 513-3 . 02-----------------------------------

513-3 . 02. . 1.10. . 6. 10.03.2020.pdf [600 KB]

-------------------------------------------------------------------------------------

-. . 9. 23.08.2004.pdf [213 KB]

--------------------------------------- . 06--------------------------------------

- . 06. . 1. 03.02.2020.pdf [434 KB]

---------------------------------------4 . 02--------------------------------------

-4 . 02. . 5. 25.07.2019.pdf [585 KB]
-4 . 02. . 10. 01.11.2019.pdf [176 KB]
-4 . 02. . 2.37. . 16. 27.03.2012.pdf [835 KB]
-4 . 02. . 2.40. . 19. 19.04.2013.pdf [2 MB]
-4 . 02. . 2.41. . 20. 01.11.2013.pdf [1 MB]
-4 . 02. . 2.47. . 22. 12.08.2014.pdf [1 MB]
-4 . 02. . 2.50. . 24. 16.03.2015.pdf [2 MB]
-4 . 02. . 2.52. . 26. 30.12.2015.pdf [1 MB]
-4 . 02. . 2.55. . 28. 25.07.2016.pdf [1 MB]
-4 . 02. . 2.56. . 29. 16.11.2016.pdf [1 MB]
-4 . 02. . 2.58. . 33. 23.04.2018.pdf [1 MB]
-4 . 02. . 2.63. . 36. 11.01.2019.pdf [1 MB]
-4 . 02. . 2.65. . 38. 14.08.2019.pdf [1 MB]
-4 . 02. . 2.66. . 39. 25.10.2019.pdf [2 MB]

-----------------------------------------------------------------------------------

-. . 1.03. . 2. 20.01.2006.pdf [396 KB]
-. . 1.03. . 5. 01.08.2013.pdf [2 MB]
-. . 0. 2004 .pdf [326 KB]

------------------------------------- . 01------------------------------------

- . 01. . 1.pdf [673 KB]

---------------------------------------- ----------------------------------------

. . 0. 01.11.2019.pdf [747 KB]
. . 3. 21.12.2019.pdf [3 MB]

------------------------------------------250-----------------------------------------

-250. . 1. 24.12.2019.pdf [829 KB]
-250. . 3. 09.04.2010.pdf [763 KB]

-------------------------------4, -10, -18, -30------------------------------

-10 IP54. . 5. 22.02.2019.pdf [176 KB]
-18 IP54. . 5. 22.02.2019.pdf [177 KB]
-30 . . 2. 04.10.2018.pdf [175 KB]
-4 IP54. . 5. 22.02.2019.pdf [176 KB]
-4, -10, -18, -30. . 11. 28.02.2020.pdf [171 KB]
-10 IP54. . 6. 22.02.2019.pdf [864 KB]
-10. . 1. 15.05.2006.pdf [240 KB]
-10. . 2. 15.04.2009.pdf [253 KB]
-18 IP54. . 6. 22.02.2019.pdf [865 KB]
-18. . 1. 15.05.2006.pdf [239 KB]
-18. . 2. 15.04.2009.pdf [254 KB]
-30 . . 2. 04.10.2018.pdf [764 KB]
-30. . 0. 15.05.2006.pdf [241 KB]
-30. . 1. 15.04.2009.pdf [255 KB]
-4 IP54. . 6. 22.02.2019.pdf [765 KB]
-4, -10, -18, -30. . 19. 28.02.2020.pdf [874 KB]
-4. . 1. 15.05.2006.pdf [240 KB]
-4. . 2. 15.04.2009.pdf [253 KB]

----------------------------------45, -75, -110---------------------------------

-110 IP54. . 4. 22.02.2019.pdf [176 KB]
-110 . . 2. 04.10.2018.pdf [181 KB]
-45 IP54. . 5. 22.02.2019.pdf [176 KB]
-45, -75, -110. . 11. 16.04.2020.pdf [183 KB]
-75 IP54. . 4. 22.02.2019.pdf [176 KB]
-110 IP54. . 5. 22.02.2019.pdf [868 KB]
-110 . . 4. 04.03.2020.pdf [1 MB]
-110. . 0. 23.05.2006.pdf [240 KB]
-110. . 1. 15.04.2009.pdf [254 KB]
-45 IP54. . 6. 22.02.2019.pdf [870 KB]
-45, -75, -110. . 18. 16.04.2020.pdf [859 KB]
-45. . 0. 23.05.2006.pdf [248 KB]
-45. . 1. 15.04.2009.pdf [254 KB]
-75 IP54. . 5. 22.02.2019.pdf [872 KB]
-75. . 0. 23.05.2006.pdf [241 KB]
-75. . 1. 15.04.2009.pdf [255 KB]

--------------------------------------------------------------------------------------

. . 11. 08.10.2019.pdf [485 KB]
. . 4. 30.03.2010.pdf [421 KB]

---------------------------12, -12 . 01, -12 . 02--------------------------

-1 . . 1. 14.09.2017.pdf [192 KB]
-12, -12 . 01, -12 . 02. . 4. 08.10.2019.pdf [984 KB]

---------------------------24, -24 . 01, -24 . 02--------------------------

-24, -24 . 01, -24 . 02. . 7. 08.10.2019.pdf [848 KB]

--------------------------------------------------------------------------------------

. . 5. 17.01.2020.pdf [151 KB]
. . 9. 31.01.2020.pdf [1 MB]

-----------------------------------------2----------------------------------------

-2.pdf [100 KB]

--------------------------------20 0104065-20-1-------------------------------

-20.doc [2 MB]

-------------------------------- 0104059-1-1-------------------------------

-.doc [942 KB]

-------------------------- 05 0104059-1-1-01-------------------------

- 05.doc [2 MB]

---------------------------4 . 05 0104059-4-1-05-------------------------

--4 . 05.pdf [1 MB]

-------------------------------4 0104059-4-1-03-----------------------------

--4.doc [3 MB]

------------------------------4 0104059-4-1-03----------------------------

--4.pdf [80 KB]
--4 2001 .pdf [393 KB]

----------------------1 0104059-1-5, -1 . 01---------------------

-1, -1 . 01. . 3. 28.07.2004 .pdf [395 KB]

----------------------2 0104059-2-1, -2 . 01---------------------

-2, -2 . 01. 2002 .pdf [1 MB]

--------------------------------6 0104059-6-1-------------------------------

-6 . 5. 07.07.2004 .pdf [710 KB]
-6 . 7. 05.12.2006 .pdf [785 KB]

------------- 01 0104059-1-4, - . 01 01------------

- 01, - . 01 01 2001 .pdf [367 KB]

-------------------------------- 0104059-1-1-------------------------------

-.pdf [278 KB]

--------------------------------- 435-8-101-04-1R---------------------------------

. . 1.10. . 5. 30.01.2020.pdf [417 KB]

---------------------------------------- 513-3----------------------------------------

513-3. . 5. 11.03.2020.pdf [530 KB]

------------------------------------ 513-3 . 01------------------------------------

513-3 . 01. . 3. 11.03.2020.pdf [359 KB]

------------------------------------ 513-3 . 02------------------------------------

513-3 . 02. . 5. 10.03.2020.pdf [512 KB]

------------------------------ .10, 11, 12, 13, 14, 15-----------------------------

- .10, 11, 12, 13, 14, 15. . 3. 28.01.2020.pdf [741 KB]

------------------------------------------------------------------------------------

. . 0. 05.11.2019.pdf [913 KB]
. . 0. 13.03.2020.pdf [7 MB]

---------------------------------------5 408-5--------------------------------------

-5. . 0. 15.03.2018.pdf [268 KB]
-5. . 3. 15.09.2009.pdf [223 KB]
-5.pdf [179 KB]

----------------------------------------------------------------------------------


-------------------------------------------4-------------------------------------------

4. 4.pdf [728 KB]

-------------------------------------------6-------------------------------------------

6 GSM.pdf [135 KB]
6. 2.pdf [919 KB]

------------------------------------------------------------------------------------

Nokia 5110 .pdf [106 KB]
. 1.0.pdf [441 KB]
. 3.0. 2001 .pdf [447 KB]
. 4.1.pdf [1 MB]
. 5.pdf [1 MB]

------------------------------------------4-----------------------------------------

-4. 1.pdf [1 MB]

--------------------------------- --------------------------------


------------------------------------------TR-SB------------------------------------------

TR-SB. 2010 .pdf [221 KB]

-----------------------------------------TREZOR-M-----------------------------------------

TREZOR-M. 2007 . 1.pdf [2 MB]
TREZOR-M. 2007 . 2.pdf [2 MB]
TREZOR-M. 2008 .pdf [2 MB]
TREZOR-M. 2010 .pdf [1 MB]

-----------------------------------------TREZOR-R-----------------------------------------

TREZOR-R. 2007 .pdf [136 KB]
TREZOR-R. 2007 .pdf [121 KB]
TREZOR-R. 2004 .pdf [595 KB]
TREZOR-R. 2007 .pdf [622 KB]
TREZOR-R. 2008 .pdf [613 KB]
TREZOR-R. 2010 .pdf [2 MB]

-----------------------------------------TREZOR-V-----------------------------------------

TREZOR-V. 2004 .pdf [1 MB]
TREZOR-V. 2007 . 1.doc [783 KB]
TREZOR-V. 2007 . 2.doc [1 MB]
TREZOR-V. 2010 .pdf [609 KB]
TREZOR-V. 2006 .pdf [136 KB]
TREZOR-V. 2007 .pdf [136 KB]
TREZOR-V. 2006 .pdf [130 KB]
TREZOR-V. 2007 .pdf [96 KB]
TREZOR-V. 2004 .pdf [479 KB]
TREZOR-V. 2007 .pdf [653 KB]
TREZOR-V. 2010 .pdf [855 KB]

---------------------------------------TREZOR-V 02---------------------------------------

TREZOR-V 02. 2006 .pdf [138 KB]
TREZOR-V 02. 2007 .pdf [107 KB]
TREZOR-V 02. 2006 .pdf [894 KB]
TREZOR-V 02. 2007 .pdf [697 KB]
TREZOR-V 02. 2010 .pdf [667 KB]

--------------------------------------------------------------------------------------


------------------------------- (24,16)(,) 2-------------------------------

, (24,16)(,) 2. 1.8. 15.11.2010 .pdf [669 KB]

------------------------------- 24(20,16,12)(,)-01-------------------------------

, 24(20,16,12)(,)-01. 02.4. 25.12.2008.pdf [761 KB]

------------------------------- 24(20,16,12)(,)-02-------------------------------

, 24(20,16,12)(,)-02. 01.5. 21.01.2009.pdf [1 MB]

------------------------------- 8(4,2)(,) 2-------------------------------

, 8(4,2)(,) 2. 1.10. 23.03.2010 .pdf [2 MB]

----------------------- 8(4,2)(,), 8(4,2)(,)()-02-----------------------

, 8(4,2)(,)()-02. 03.7. 15.10.2009.pdf [3 MB]
, 8(4,2)(,). 01.1. 04.03.2008.doc [1 MB]

--------------------------------------- -101---------------------------------------

-101. 1.8.pdf [1 MB]
-101.pdf [89 KB]
. 1.7.0.pdf [695 KB]
. 1.9.0.pdf [547 KB]
-. 1.6. 2009 .pdf [260 KB]

-----------------------------------------2 GSM----------------------------------------

, -2 GSM. . 1.1. 17.03.2020.pdf [3 MB]

------------------------------------------512-----------------------------------------

, -512. 2003 .doc [1 MB]
, -512. v7. 07.04.2010.pdf [793 KB]

------------------------------------------GSM-----------------------------------------

, -GSM. V09.1. 29.03.2006 .pdf [795 KB]

--------------------------------------HYBRID(-R)-------------------------------------

, -HYBRID(-R). 1.6. 30.08.2018.pdf [3 MB]

-----------------------------------------LEON----------------------------------------

, -LEON. 2.4. 30.08.2018.pdf [1 MB]

-----------------------------------------------------------------------------------

, -. 2004 .doc [652 KB]

-----------------------------------------------------------------------------------

, -. 2005 .doc [1 MB]
, -. 3.3. 15.05.2009 .pdf [278 KB]

---------------------------------, - 2--------------------------------

- 2. 03. 07.04.2010 .pdf [170 KB]
-. 01. 30.07.2007 .doc [1 MB]

-----------------------------------------------------------------------------------

-. . 1.0. 28.10.2019.pdf [1 MB]

-----------------------------------------------------------------------------------

, -. 2005 .doc [1 MB]
, -. 2004 .doc [1 MB]

-----------------------------------(16,24) -----------------------------------

, -(16,24) -. . 1.0. 08.04.2015.pdf [2 MB]

--------------------------------(16,24)(,)()(LAN)-------------------------------

, -(16,24)(,)()(LAN) 3.1. . 2.1. 05.09.2014.pdf [6 MB]

------------------------------(16,24)(,)()(LAN)(-)-----------------------------

, -(16,24)(,)()(LAN)(-) 3.2. . 3.2. 18.04.2019.pdf [2 MB]

-------------------------------------(16,24)()------------------------------------

, -(16,24)() 3.1. . 2.0. 05.03.2013.pdf [3 MB]

------------------------------------(8,4,2) -----------------------------------

, -(8,4,2) 3. 3.3. 04.07.2011.pdf [745 KB]
, -(8,4,2) 3.1. 4. 22.10.2012.pdf [741 KB]

-----------------------------------(8,4,2) -----------------------------------

, -(8,4,2) -. . 4.1. 15.10.2013.pdf [1 MB]
, -(8,4,2) -. . 5.0. 30.03.2015.pdf [2 MB]

--------------------------------(8,4,2)(,)()(LAN)-------------------------------

, -(8,4,2)(,)()(LAN) 3.1. . 2.1. 05.09.2014.pdf [6 MB]

------------------------------(8,4,2)(,)()(LAN)(-)-----------------------------

, -(8,4,2)(,)()(LAN)(-) 3.2. . 4.3. 18.04.2019.pdf [2 MB]

-------------------------------------(8,4,2)()------------------------------------

, -(8,4,2)() 3. . 1.6. 23.01.2012.pdf [1 MB]
, -(8,4,2)() 3.1. . 2.0. 05.02.2013.pdf [787 KB]

----------------------------------(8,4,2)-02 ---------------------------------

, -(8,4,2)-02 2. 2.5. 26.02.2010.pdf [835 KB]
, -(8,4,2)-02 . 01.8. 21.01.2009.pdf [998 KB]

------------------------------------------1-----------------------------------------

, -1. 2005 .doc [897 KB]
, -1. . 2. 2007 .pdf [869 KB]
, -1. 2004 .doc [333 KB]

---------------------------------1-01, -1-01--------------------------------

, -1-01 2, -1-01 2. v1.1. 01.08.2016.pdf [1 MB]
, -1-01 3.2, -1-01 3.2. . 1.3. 30.03.2018.pdf [681 KB]

----------1-01, -1-01, -1-01 2, -1-01 2---------

, -1-01 2, -1-01 2. 0.18. 11.12.2009 .pdf [1 MB]
, -1-01, -1-01. 10.08.2007 .doc [1 MB]
, -1-01, -1-01. 12.12.2007 .doc [1 MB]

-----------------------------------------1----------------------------------------

, -1. 2005 .doc [873 KB]
, -1. 2004 .doc [848 KB]

----------------------------------------24---------------------------------------

, -24. 2005 .doc [1 MB]

-----------------------------------2, -2----------------------------------

, -2, -2. 2005 .pdf [423 KB]
, -2, -2. 2004 .doc [1 MB]

-----------------------------------------------------------------------------------

, -. 2004 .doc [521 KB]

------------------------------------------------------------------------------------


-----------------------------------------------------------------------------------

-. 1.pdf [231 KB]
-. 2.pdf [296 KB]
-.pdf [208 KB]
-.pdf [409 KB]
-.pdf [240 KB]

------------------------------------------------------------------------------------

.pdf [210 KB]
.pdf [208 KB]

------------------------------------------------------------------------------------

.pdf [210 KB]
.pdf [425 KB]

----------------------------------------12-2---------------------------------------

-12-2. 2006 .pdf [1 MB]
-12-2. 1. 2006 .pdf [557 KB]
-12-2. 2. 2006 .pdf [339 KB]
-12-2.pdf [374 KB]

----------------------------------------007---------------------------------------

-007.pdf [999 KB]
-007.pdf [810 KB]
-007.pdf [333 KB]

---------------------------------------------------------------------------------

-.pdf [275 KB]
- .425114.004-01.pdf [730 KB]
- .425114.004. 1.pdf [902 KB]
- .425114.004. 2.pdf [770 KB]
-.pdf [5 MB]
-01.pdf [663 KB]
-. 1.pdf [327 KB]
-. 2.doc [241 KB]
-.doc [233 KB]
-.pdf [287 KB]

---------------------------------------------------------------------------------

-.pdf [267 KB]
- .425114.001.pdf [3 MB]
- .425114.008.pdf [1 MB]
- .425114.001.pdf [3 MB]
- .425114.008.pdf [4 MB]
-.pdf [314 KB]
-.pdf [298 KB]

----------------------------------------------------------------------------------

.pdf [634 KB]
.pdf [1 MB]
.pdf [330 KB]

------------------------------------------------------------------------------------

.pdf [491 KB]
.pdf [346 KB]
.pdf [502 KB]

------------------------------------------------------------------------------------

.pdf [5 MB]
.pdf [1015 KB]

--------------------------------------------------------------------------------------

.pdf [496 KB]

------------------------------------ ------------------------------------


------------------------------------- ACCEL GSM-------------------------------------

ACCEL GSM. 3. 2018 .pdf [331 KB]

-------------------------------------- ACCEL RA--------------------------------------

ACCEL RA. 2. 2018 .pdf [326 KB]

---------------------------------------- L50----------------------------------------

L50. 2010 .doc [219 KB]
L50. 3. 2018 .pdf [501 KB]

--------------------------------------- L50GSM---------------------------------------

L50GSM. 2010 .doc [221 KB]
L50GSM. 5. 2018 .pdf [384 KB]

---------------------------------------- L50R----------------------------------------

L50R. 2010 .doc [217 KB]

--------------------------------------- L50RA---------------------------------------

L50RA. 2010 .doc [201 KB]
L50RA. 1. 2018 .pdf [472 KB]

------------------------------------- L50RA Livi-------------------------------------

L50RA Livi. 1. 2019 .pdf [473 KB]

--------------------------------------- L50RA2---------------------------------------

L50RA2. 2018 .pdf [484 KB]

---------------------------------------- L70----------------------------------------

L70. 3. 2018 .pdf [494 KB]

--------------------------------------- L70GSM---------------------------------------

L70GSM. 5. 2018 .pdf [377 KB]

--------------------------------------- L70RA---------------------------------------

L70RA. 2. 2018 .pdf [464 KB]

------------------------------------- L70RA Livi-------------------------------------

L70RA Livi. 1. 2019 .pdf [474 KB]

--------------------------------------- V10RA---------------------------------------

V10RA. 2. 2018 .pdf [349 KB]

------------------------------------- V10RA Livi-------------------------------------

V10RA Livi. 2019 .pdf [454 KB]

-------------------------------------- V10--------------------------------------

V10. 2. 2018 .pdf [361 KB]

----------------------------------------a-98----------------------------------------


---------------------------------------------------------------------------------

-.doc [54 KB]

---------------------------------- ----------------------------------


-----------------------------TSS-2000 Profi, TSS-2000 Office-----------------------------

TSS-OFFICE, TSS-PROFI. . 2006 .pdf [3 MB]
TSS-2000. 10.08.2000 . 24.04.2002 .pdf [552 KB]
1. TSS-2000. 24.04.2002.pdf [47 KB]
TSS-OFFICE, TSS-PROFI. . 1.0. 06.07.doc[1 MB]
TSS-OFFICE, TSS-PROFI. . 5. 2004 .pdf [1 MB]
TSS-LRM . 1.0. 23.06.2004 .doc [380 KB]
TSS-Sluice ( 1.0). 1.02. 29.10.2004 .doc [326 KB]

---------------------------------------- 4.3----------------------------------------

TSS-OFFICE, TSS-PROFI. . 4.3. 26.04.2005 .doc [1 MB]
TSS-OFFICE, TSS-PROFI. . 4.3. 2005 .doc [1 MB]
TSS-OFFICE, TSS-PROFI. . 4.3. 07.06.2005 .doc[140 KB]
TSS-OFFICE, TSS-PROFI. . 4.3. 2005 .doc [318 KB]
TSS-OFFICE, TSS-PROFI. . 4.3. 2005 .doc [7 MB]
TSS-OFFICE, TSS-PROFI. . 4.3. 2005 .doc [4 MB]
TSS-OFFICE, TSS-PROFI. . 4.3. 07.06.2005 .doc [192 KB]
TSS-OFFICE, TSS-PROFI. . 4.3. 26.04.2005 .doc [2 MB]
TSS-VIDEO. 4.3. 24.05.2005 .doc [4 MB]
TSS-2000 PROFI. . 4.3. 11.05.2005 .doc[537 KB]
TSS-2000 PROFI. . 4.3. 20.04.2005 .doc[236 KB]
TSS-OFFICE, TSS-PROFI. . 4.3. 2005 .doc [5 MB]
TSS-OFFICE, TSS-PROFI. (). 4.3. 2005 .doc [2 MB]
TSS-OFFICE, TSS-PROFI. . 4.3. 20.04.2005 .doc [159 KB]
TSS-OFFICE, TSS-PROFI. . 4.3. 2005 .doc [17 MB]
TSS-OFFICE, TSS-PROFI. . 4.3. 14.06.2005 .doc [4 MB]

----------------------------------------- 6-----------------------------------------

TSS-OFFICE, TSS-PROFI. . 6. 2006 .pdf [1 MB]
TSS-OFFICE, TSS-PROFI. . 6. 2006 .pdf [929 KB]
TSS-OFFICE, TSS-PROFI. . 6. 2006 .pdf [1 MB]
TSS-OFFICE, TSS-PROFI. . 4 . 6. 6. 2006 .pdf[636 KB]
TSS-OFFICE, TSS-PROFI. . 6. 2006 .pdf[400 KB]
TSS-OFFICE, TSS-PROFI. . 6. 2006 .pdf [618 KB]
TSS-OFFICE, TSS-PROFI. . 6. 2006 .pdf[1 MB]
TSS-OFFICE, TSS-PROFI. . 6.pdf [1020 KB]
TSS-OFFICE, TSS-PROFI. . 6. 2006 .pdf [2 MB]
TSS-OFFICE, TSS-PROFI. . 6. 2006 .pdf [762 KB]
TSS-OFFICE, TSS-PROFI. . 6. 2006 .pdf [774 KB]
TSS-OFFICE, TSS-PROFI. . 6. 2006 .pdf [1 MB]
TSS-PROFI, TSS-SIGNAL. . 6. 2006 .pdf [534 KB]
TSS2000. . 6. 2006 .pdf [1 MB]
TSS-OFFICE, TSS-PROFI. . 6. 2006 .pdf [1 MB]
TSS-OFFICE, TSS-PROFI. ( ). 6. 2006 .pdf [1 MB]
TSS-OFFICE, TSS-PROFI. (). 6. 2006 .pdf [1 MB]
TSS-OFFICE, TSS-PROFI. . 6. 2006 .pdf [1 MB]
TSS-OFFICE, TSS-PROFI. . 6. 2006 .pdf [1 MB]

----------------------------------------- 7-----------------------------------------

TSS0001_ TSS.pdf [109 KB]
TSS0010_ TSSProfi.pdf [1 MB]
TSS0011_ .pdf [150 KB]
TSS0101__.pdf [483 KB]
TSS0102_ TSSProfi.pdf [532 KB]
TSS0103_ 4 7.pdf [421 KB]
TSS0104_ 6 7.pdf [400 KB]
TSS0105_ TSS2000Profi.pdf [401 KB]
TSS0106_ - TSS2000 Profi.pdf [3 MB]
TSS0107_ .pdf [386 KB]
TSS0201_ .pdf [315 KB]
TSS0202_ .pdf [1 MB]
TSS0203_ .pdf [817 KB]
TSS0204_.pdf [1019 KB]
TSS0205_ .pdf [393 KB]
TSS0206_.pdf [1 MB]
TSS0207_.pdf [1 MB]
TSS0208__ .pdf [352 KB]
TSS0209_ .pdf [411 KB]
TSS0210_.pdf [1 MB]
TSS0211_ .pdf [570 KB]
TSS0212_ .pdf [931 KB]
TSS0301_ TSSProfi .pdf[337 KB]
TSS0302_ .pdf [585 KB]
TSS0303_ .pdf [1 MB]
TSS0304_ .pdf [241 KB]
TSS0305_ .pdf [918 KB]
TSS0306_ .pdf [2 MB]
TSS0308_ .pdf [286 KB]
TSS0309_ .pdf [1 MB]
TSS0310_ .pdf [398 KB]
TSS0311_ .pdf [469 KB]
TSS0312_ .pdf [2 MB]
TSS0313_ .pdf [791 KB]
TSS0314_ .pdf [1 MB]
TSS0315_.pdf [1 MB]
TSS0316_.pdf [563 KB]
TSS0317_ .pdf [1 MB]
TSS0318_ -.pdf [1 MB]
TSS0319_ 1.pdf [492 KB]
TSS0320_ 2.pdf [406 KB]
TSS0321b_ .pdf [206 KB]
TSS0321_ TSSProfi VisitorControl.pdf [281 KB]
TSS0322_ TSSProfi .pdf [1 MB]
TSS0323_ TSSProfi .pdf [498 KB]
TSS0324_ TSSProfi .pdf [264 KB]
TSS0325_ .pdf [1 MB]
TSS0327_ ( ).pdf [4 MB]
TSS0328_ ( ).pdf [1 MB]
TSS0330_ TSSProfi .pdf[339 KB]
TSS0331_ .pdf [396 KB]
TSS1101_ TSSProfi.pdf [1 MB]
TSS1102_ - .pdf [156 KB]
TSS1103_ .pdf [404 KB]
TSS1105_ .pdf [240 KB]
TSS1106_ .pdf [1 MB]
TSS1107_ .pdf [1 MB]
TSS1108_ TSS-2000.pdf [8 MB]
TSS1109_ .pdf [323 KB]
TSS1110_ .pdf [365 KB]
TSS1111_ TSSProfi.pdf [842 KB]

--------------------------------------------------------------------------------------


------------------------------------------------------------------------------------

.doc [668 KB]
. 1.doc [409 KB]
. 2.doc [1 MB]
.doc [713 KB]

------------------------------------------------------------------------------------


------------------------------------------2-----------------------------------------

-2. 2004 .pdf [223 KB]

------------------------------------------3-----------------------------------------

-3.pdf [365 KB]

------------------------------------------6-----------------------------------------

-6. 2008 .pdf [727 KB]

-----------------------------------------08----------------------------------------

-08.pdf [685 KB]

-----------------------------------------08----------------------------------------

-08. 2012 .pdf [511 KB]
-08. 2014 .pdf [585 KB]

-----------------------------------------8----------------------------------------

-8. 2011 .pdf [826 KB]

--------------------------------------------------------------------------------------


-------------------------------------8 209-15------------------------------------

-8.pdf [201 KB]

-----------------------------------------101----------------------------------------

-101.pdf [160 KB]

-----------------------------------------501----------------------------------------

. . 1996 .doc [125 KB]
. . . 1. 1996 .doc [12 MB]
. . . 2. 1996 .doc [4 MB]
. . Ademco. 1996 .doc [4 MB]

----------------------------------------------------------------------------------


-------------------------------------------------------------------------------

-.pdf [561 KB]
-. . 15.pdf [307 KB]
-.pdf [610 KB]

-----------------------------------------------------------------------------

-. .zip [1 MB]
-.pdf [610 KB]

-------------------------------------------048------------------------------------------

-048. 22.pdf [832 KB]
-048. 6.pdf [231 KB]
-048.pdf [179 KB]

------------------------------------------048-----------------------------------------

-048. 6.pdf [2 MB]

-------------------------------------------150------------------------------------------

-150. . 23.pdf [898 KB]
-150. . 7.pdf [154 KB]

------------------------------------------150-----------------------------------------

-150.pdf [106 KB]

------------------------------------------210RM-----------------------------------------

-210RM. . 19.pdf [806 KB]
-210RM. . 9.pdf [347 KB]

--------------------------------------------------------------------------------------

. . 10.pdf [162 KB]
. . 21.pdf [558 KB]
.pdf [217 KB]

-------------------------------------------------------------------------------------

-.pdf [1 MB]

------------------------------------------------------------------------------------

. 5.pdf [146 KB]
. 2008 .pdf [1003 KB]
.pdf [1 MB]
.pdf [432 KB]
. 3.pdf [125 KB]

----------------------------------------------------------------------------------

. 5.pdf [165 KB]
(). 5.pdf [173 KB]
(). 6.pdf [82 KB]
. 2008 ..pdf [823 KB]
. 4.pdf [1 MB]
. 7.pdf [721 KB]
.doc [1 MB]
.pdf [482 KB]
(). 6.pdf [127 KB]
(). 7.pdf [56 KB]

------------------------------------------------------------------------------------

.doc [529 KB]

------------------------------------------2-----------------------------------------

-2. 2008 ..pdf [713 KB]
-2.doc [990 KB]
-2.doc [149 KB]
. . 7.pdf [77 KB]
. . 8.pdf [310 KB]
.doc [141 KB]
-125. . 10.pdf [332 KB]
-125. . 7.pdf [62 KB]
-125.doc [139 KB]
-125. . 8.pdf [113 KB]
-125. . 9.pdf [83 KB]
-125.doc [119 KB]

------------------------------------------21-----------------------------------------

-21. 2008 .pdf [749 KB]
-21. . 10.pdf [762 KB]
-21. . 9.pdf [773 KB]
-21.doc [2 MB]
-21. . 1.doc [158 KB]
-21. . 10.pdf [72 KB]
-21. . 9.pdf [134 KB]
-.doc [113 KB]
-21. . 1.pdf [255 KB]
2250. . 6.pdf [58 KB]

------------------------------------------22-----------------------------------------

-22.pdf [793 KB]

------------------------------------------24-----------------------------------------

-24. . 4.pdf [149 KB]
-24. . 14.pdf [11 MB]
-24. . 6.pdf [11 MB]
-24. . 8.pdf [2 MB]
-24. . 1.pdf [213 KB]
-24. . 2.pdf [57 KB]
-125-. . 1.pdf [304 KB]

------------------------------------------3-----------------------------------------

-3. 2008 ..pdf [772 KB]
-3. . 12.doc [1 MB]
-3. . 14.pdf [853 KB]
-3.doc [520 KB]
4250. . 1.pdf [45 KB]
-4-125. . 1.pdf [272 KB]
-50. . 3.pdf [51 KB]
-50. . 4.pdf [64 KB]

----------------------------------------------------------------------------------

. . 4.pdf [4 MB]
. . 5.pdf [14 MB]
. . 6.pdf [3 MB]
. . 2.pdf [225 KB]
. . 3.pdf [1 MB]

------------------------------------------212-----------------------------------------

-212. . 7.pdf [9 MB]
-433. . 1.pdf [903 KB]
1 -212. . 11.pdf [11 MB]
2 -212. . 7.pdf [2 MB]
3 -212. . 5.pdf [677 KB]
-212. . 10.pdf [4 MB]

----------------------------------------------------------------------------------

--.pdf [313 KB]

---------------------------------------------------------------------------------

-. . 5.pdf [530 KB]
-.pdf [643 KB]
-. . 11.pdf [999 KB]

-----------------------------------------1----------------------------------------

-1.doc [932 KB]

---------------------------------------------------------------------------------

-.doc [566 KB]

----------------------------------------1-------------------------------------

---1. 15.pdf [369 KB]
---1. 2008 ..pdf [595 KB]
---1. 13.pdf [1 MB]
---1.pdf [1 MB]

----------------------------------------1-------------------------------------

---1. 14.pdf [369 KB]
---1. 2008 ..pdf [798 KB]
---1. 11.pdf [1 MB]
---1.pdf [1 MB]
---1.pdf [296 KB]

----------------------------------------1-------------------------------------

---1. 2008 .pdf [916 KB]
---1.pdf [1 MB]

-------------------------------------------------------------------------

.pdf [51 KB]
. . 1.pdf [53 KB]
. . 1.pdf [46 KB]
(). . 1.pdf [188 KB]
. . 1.pdf [194 KB]
. . 1.pdf [46 KB]
- ().pdf [186 KB]
-. . 24.pdf [4 MB]
-.pdf [319 KB]
.pdf [41 KB]
.pdf [42 KB]
().pdf [71 KB]
. . 6.pdf [92 KB]
. . 8.pdf [51 KB]
-. . 2.pdf [124 KB]
-, -. . 2.pdf [95 KB]
-. . 1.pdf [37 KB]
-.pdf [42 KB]
-. . 1.pdf [113 KB]
. . 2.pdf [127 KB]

-------------------------------- - ()--------------------------------

- (). 1.pdf [1 MB]
- (). 2.pdf [1 MB]

-------------------- - (). 28.06.2020--------------------

- (). 1. 28.06.2020.pdf [1 MB]
- (). 2. 28.06.2020.pdf [2 MB]

---------------------------- -. 2 ----------------------------

-. 1. . 6.pdf [2 MB]
-. 2. . 6.pdf [1 MB]

---------------------------- -. 5 ----------------------------

-. 1. . 9.pdf [1 MB]
-. 2. . 7.pdf [1 MB]
-. 3. . 1.pdf [1 MB]
-. 4. . 1.pdf [669 KB]
-. 5. . 1.pdf [994 KB]

---------------------------- -. 6 ----------------------------

-. 1. 1. . 12.pdf [11 MB]
-. 1. 2. . 9.pdf [8 MB]
-. 2. . 13.pdf [10 MB]
-. 3. . 5.pdf [1 MB]
-. 4. . 6.pdf [3 MB]
-. 5. . 7.pdf [8 MB]
-. 6. . 2.pdf [582 KB]

---------------------------- 2-40, 2-100, 2-200----------------------------

2-40, 2-100, 2-200.doc [299 KB]
2-40, 2-100, 2-200. 2008 .pdf [173 KB]
2-40, 2-100, 2-200. .doc [589 KB]

----------------------------------------- 2-----------------------------------------

2.doc [623 KB]

------------------------------------------------------------------------------------

.doc [1 MB]
.doc [914 KB]

-----------------------------------------------------------------------------------

-.doc [252 KB]

----------------------------------------------------------------------------------

.pdf [6 MB]
. 2.pdf [236 KB]
. 1.pdf [188 KB]
.pdf [4 MB]
.pdf [197 KB]

--------------------------------------------------------------------------------------

.doc [731 KB]

-----------------------------------------------------------------------------

-.pdf [6 MB]

----------------------------------------01--------------------------------------

--01. 10.pdf [2 MB]
--01. 8.pdf [169 KB]
--01. 11.pdf [338 KB]
--01. 12.pdf [439 KB]
--01.pdf [208 KB]

-------------------------------------------------------------------------------

-.doc [225 KB]

--------------------------------------------------------------------------------

--. 2008 .pdf [379 KB]
--. 2010 .doc [433 KB]
--.doc [455 KB]

-----------------------------------------1--------------------------------------

---1. . 14.pdf [2 MB]
---1. . 3.pdf [2 MB]
---1. . 5.doc [2 MB]
---1. . 2.pdf [1 MB]
---1. . 13.pdf [2 MB]

-----------------------------------------2--------------------------------------

---2. . 15.pdf [8 MB]
---2. . 16.pdf [9 MB]
---2. . 11.pdf [3 MB]

-------------------------------------------------------------------------------

-. . 1.pdf [741 KB]
-. . 22.pdf [657 KB]
-.doc [237 KB]

-------------------------------------------------------------------------------

-. .doc [239 KB]
-.pdf [154 KB]

--------------------------------------------------------------------------------------

.pdf [281 KB]

--------------------------------------------------------------------------------------

.pdf [78 KB]

---------------------------------------- -110----------------------------------------

-110. 2.pdf [3 MB]
-110. 1. 3.pdf [2 MB]
-110. 2. 2.pdf [2 MB]
-110. 3. 1.pdf [200 KB]

--------------------------------------------------------------------------------------

.doc [206 KB]
-.doc [215 KB]
-. 2008 ..pdf [164 KB]
-. 2008 ..pdf [244 KB]
-.doc [442 KB]
-. 2008 ..pdf [841 KB]
-.doc [997 KB]
.doc [189 KB]
-. 2008 ..pdf [211 KB]
-.doc [471 KB]
-. 2008 ..pdf [172 KB]
-.doc [249 KB]
-. 2008 ..pdf [899 KB]
-.doc [9 MB]
-. 2008 ..pdf [2 MB]
-.doc [2 MB]
-. 2008 ..pdf [183 KB]
-.doc [9 MB]
-. 2008 ..pdf [112 KB]
. 2008 ..pdf [201 KB]
.doc [332 KB]
.doc [190 KB]

-------------------------------------------------------------------------------------

. 1.pdf [54 KB]
-.pdf [961 KB]

---------------------------------- -. 4 ----------------------------------

-. 1. 1.pdf [590 KB]
-. 2. 1.pdf [569 KB]
-. 3. 1.pdf [428 KB]
-. 4. 1.pdf [101 KB]

------------------------------------------------------------------------------------

. 3.pdf [206 KB]

------------------------------------------------------------------------------------

. .doc [65 KB]
.pdf [453 KB]

--------------------------------------------------------------------------------------

. 1.pdf [747 KB]
. 2.pdf [1 MB]

---------------------------------------------------------------------------------

-.doc [589 KB]

---------------------------------------------------------------------------------

-.pdf [2 MB]

-------------------------------------- ()-------------------------------------

-. 3.pdf [326 KB]
-. 3.pdf [223 KB]
-. 2.pdf [604 KB]
-. 3.pdf [623 KB]
-.pdf [425 KB]
-.pdf [1 MB]

--------------------------------- -. 3 ---------------------------------

-. 1.pdf [867 KB]
-. 2.pdf [1 MB]
-. 3.pdf [257 KB]

-----------------------------------------------------------------------------------

-.pdf [425 KB]

---------------------------------------------------------------------------------

-.doc [134 KB]

------------------------------- -------------------------------

. 2012 .pdf [351 KB]
.pdf [195 KB]

------------------------------------------------------------------------------------

. 8.pdf [1 MB]
.doc [2 MB]

------------------------------------------22-----------------------------------------

-22. . 10.pdf [4 MB]
-22. . 5.pdf [420 KB]
-22. . 8.pdf [5 MB]
-22. . 9.pdf [5 MB]
-22.doc [673 KB]
-22. . 4.pdf [300 KB]
-22. . 5.pdf [66 KB]

-------------------------------------- -125--------------------------------------

-. 4.pdf [638 KB]
. 4.pdf [399 KB]
-. 4.pdf [617 KB]
. 4.pdf [628 KB]
-125. 7.pdf [3 MB]

------------------------------------- -1-300-------------------------------------

-1-300. 15.pdf [1 MB]
-1-300. 16.pdf [11 MB]
-1-300. 4.pdf [1 MB]
-1-300. 15.pdf [3 MB]

-------------------------------------- -200--------------------------------------

-200. 1.pdf [749 KB]
-200. 3.pdf [939 KB]
-200. 4.pdf [964 KB]
-200.pdf [124 KB]

-------------------------------------- -300--------------------------------------

-300. 6.doc [6 MB]
-300. 8.doc [5 MB]
-300. 7.doc [349 KB]

-------------------------------------- -500--------------------------------------

-500 (). . 2.pdf [1 MB]
-500. . 10.doc [4 MB]
-500. . 23.pdf [11 MB]
-500. . 9.pdf [1 MB]
-500. . 17.pdf [3 MB]

------------------------------------- -250-------------------------------------

-250. 1.pdf [737 KB]

-------------------------------------------73------------------------------------------

-73.doc [5 MB]

-------------------------------------------------------------------------------------

-. 2008 ..pdf [281 KB]
-.doc [392 KB]
.pdf [390 KB]
.doc [88 KB]
.doc [113 KB]

------------------------------------------------------------------------------------

--.doc [83 KB]
-C-. 2008 .pdf [270 KB]
-C-.doc [197 KB]

-----------------------------------------------------------------------------

--.doc [99 KB]
---. 2008 .pdf [227 KB]
---.doc [276 KB]

-----------------------------------------------------------------------------

---. 2008 .pdf [238 KB]
---.doc [313 KB]

------------------------------------------------------------------------------------

-C-. 2008 .pdf [384 KB]
-C-.doc [323 KB]
--.doc [183 KB]

-----------------------------------------94-----------------------------------------

94-050-18. 2008 ..pdf [437 KB]
94-050-18.doc [522 KB]
94-100-18.doc [624 KB]
94-150(300)-18-C(T). 2008 ..pdf [435 KB]
94-150(300)-18-C(T).doc [899 KB]
94-150(300)-18-. 2008 ..pdf [357 KB]
94-150(300)-18-.doc [534 KB]
94-250-18. 2008 ..pdf [405 KB]
94-250-18.doc [741 KB]
94-300-18-.doc [247 KB]
94-050-18.doc [242 KB]
94-100-18.doc [224 KB]
94-150-18.doc [249 KB]
94-250-18.doc [235 KB]
94-300-18-.doc [186 KB]
94-300-18.doc [228 KB]
.doc [75 KB]

-----------------------------------------------------------------------------------

-. .425723.003.pdf [244 KB]
-. .425723.005.pdf [301 KB]

--------------------- -. .425723.003. ---------------------

- 003. 7.doc [87 KB]
- 003. .doc [272 KB]

--------------------- -. .425723.005. ---------------------

- 005. 7.doc [89 KB]
- 005. .doc [322 KB]

-----------------------------------------------------------------------------------

-. . 7.pdf [1 MB]
-.pdf [282 KB]
-. . 9.pdf [544 KB]
-.pdf [180 KB]

----------------------------------------12, -24---------------------------------------

-12, -24.pdf [175 KB]

------------------------------------------1-----------------------------------------

-1. 2008 .pdf [540 KB]
-1.doc [2 MB]
-1.doc [155 KB]

-----------------------------------------125----------------------------------------

-125. 3.pdf [1 MB]
-125. 5.doc [2 MB]

-----------------------------------------------------------------------------------

- -.doc [239 KB]
-.doc [117 KB]
-.doc [517 KB]
- -.doc [992 KB]
-. 2008 ..pdf [349 KB]
-.doc [384 KB]

-----------------------------------------08---------------------------------------

--08. 1.pdf [130 KB]

-----------------------------------------16---------------------------------------

--1632-.pdf [1 MB]
.pdf [352 KB]
RS232RS485.pdf [227 KB]
-08.pdf [270 KB]
.pdf [323 KB]
--16.pdf [698 KB]

-----------------------------------------32---------------------------------------

--32. 3.pdf [756 KB]

-------------------------------------------------------------------------------------

-.doc [310 KB]

---------------------------------------2000--------------------------------------


---------------------------------------------------------------------------------

-.dwg [53 KB]
-.doc [287 KB]

----------------------------01 ---------------------------

-01.doc [145 KB]

--------------------------------------------------------------------------------------

. 2008 .pdf [154 KB]

----------------------------------------------------------------------------------

.doc [205 KB]
.doc [1 MB]

--------------------------------------- 20---------------------------------------

20. 2008 .pdf [912 KB]
20. 3.doc [1 MB]
20.doc [1 MB]

--------------------------------------- 40---------------------------------------

40.doc [319 KB]
40. 2.pdf [6 MB]
40. 4.pdf [355 KB]

------------------------------------- 40-------------------------------------

40.dwg [70 KB]
40.doc [3 MB]

---------------------------------------()---------------------------------------

-. 2.pdf [302 KB]
. 1.doc [606 KB]
. 2.doc [607 KB]

--------------------------------------------------------------------------------------

.doc [199 KB]
.doc [790 KB]

---------------------------------------2000--------------------------------------

.425621.002 2008 .pdf [703 KB]
.425621.002-03 3.pdf [111 KB]
.425621.002-03.doc [261 KB]
.425621.002.doc [1 MB]
.doc [206 KB]
- 2008 .doc [1 MB]
.doc [862 KB]
.doc [499 KB]
-2000-03.doc [318 KB]

------------------------------------ .425621.002------------------------------------

.425621.002 1. 2008 .pdf [1 MB]
.425621.002 2.doc [13 MB]
.425621.002 3.doc [10 MB]
.425621.002-02 1.doc [1 MB]

---------------------------------- .425621.002-03----------------------------------

1. .425621.002-03 3.pdf [1 MB]
1. .425621.002-03.doc [1 MB]
2. .425621.002-03 2.pdf [437 KB]
2. .425621.002-03.doc [516 KB]

--------------------- . 8 ---------------------

1 .doc [3 MB]
2 .doc [2 MB]
3 .doc [2 MB]
4 .doc [1 MB]
5 .doc [597 KB]
6 .doc [1 MB]
7 -.doc [94 KB]
8 .doc [971 KB]

--------------------------------------------------------------------------------------


---------------------------------16 01059-56-16--------------------------------

-16.pdf [1 MB]

--------------------------------1 01059-56-1-------------------------------

-1.pdf [993 KB]

--------------------------------1 01059-56-1-------------------------------

-1. 06.2011 .pdf [4 MB]

----------------------------------4 01059-56-4---------------------------------

-4. 30.05.2020 .pdf [661 KB]
-4.pdf [657 KB]

--------------------------------------------------------------------------------------


-------------------------- -43.601, -43.606--------------------------

-43.601, -43.606. 2007 .pdf [868 KB]

------------------------ -36.781, -36.786, -36.787------------------------

-36.781, -36.786, -36.787. 2008 .pdf [925 KB]
-36.781, -36.786, -36.787. 2006 .pdf [415 KB]

------ -86.681, -686, -687, -688, -689, -881, -886, -887, -888, -889----

-- -86.681, -686, -687, -688, -689, -881, -886.pdf [1 MB]

------------------- -86.6811, -86.6861, -86.6871-----------------

-- -86.6811, -6861, -6871. 2006 .pdf [444 KB]

-----------------------------18.68015667, -16.6801566----------------------------

-16.6816. 12.03.2004 .doc [714 KB]
-18.68015666. 2007 .pdf [751 KB]
-18.68015667, -16.6801566. 2009 .pdf [512 KB]
-18.680166, -16.680166. 2004 .doc [658 KB]

-----------------------------------------26.461----------------------------------------

-26.461. 2006 .pdf [957 KB]
-26.461. 2007 .pdf [1 MB]
-26.461. 2010 .pdf [758 KB]

---------------26.561, -26.565, -26.566, -26.566, -26.566--------------

-26.561, -26.565, -26.566, -26.566, -26.566. 2006 .pdf [666 KB]
-26.561, -26.566, -26.566. 2011 .pdf [1 MB]

-----------26.761, -26.766, -26.768, -26.861, -26.866, -26.868----------

-26.761, -26.766, -26.768, -26.861, -26.866, -26.868. 2011 .pdf [2 MB]
-26.761, -26.766. 2006 .pdf [426 KB]

-----------------------------36.581, -36.586, -36.587----------------------------

-36.581, -36.586, -36.587. 2006 .pdf [823 KB]
-36.581, -36.586, -36.587. 2007 .pdf [573 KB]

-----------------------------36.681, -36.686, -36.687----------------------------

-36.681, -36.686, -36.687. 2006 .pdf [821 KB]
-36.681, -36.686, -36.687. 2007 .pdf [564 KB]

-------------------- -16.581, -16.586, -16.587--------------------

-16.581, -16.586, -16.587. 2006 .pdf [695 KB]
-16.581, -16.586, -16.587. 2007 .pdf [579 KB]

-------------------------------------------------------------------------


------------------------------------00, -00, -100-----------------------------------

-00, -00, -100.pdf [658 KB]

-----------------------------------------12----------------------------------------

-12 2003 .doc [973 KB]

---------------------------------------12-20--------------------------------------

-12-20. 13.09.2018.pdf [2 MB]

----------------------------------------12---------------------------------------

-12. 22.12.2015 .pdf [2 MB]
-12.pdf [1 MB]

---------------------------------12, -12--------------------------------

-12, -12.doc [1 MB]

----------------------------14, -14, -12, -12---------------------------

-14, -14, -12, -12. 11.02.2019.pdf [2 MB]

----------------------------14, -14, -12, -12---------------------------

-12, -12. 1.pdf [1 MB]
-12, -12. 2.pdf [1 MB]
-12, -12. 3.pdf [2 MB]
-14, -14, -12, -12. 11.02.2019.pdf [2 MB]

----------------------------20-350, -20-350---------------------------

-20-350, -20-350. 22.06.2018.pdf [2 MB]

----------------------------20-350, -20-350---------------------------

-20-350, -20-350. 22.06.2018.pdf [2 MB]

--------------------------- 1-500, -250, -500, -250--------------------------

- 1-500, -250, -500, -250.pdf [1 MB]

------------------------- 1-500, - 1-250------------------------

- 1-500, - 1-250.pdf [1 MB]

---------------- 1-500, -250, -500, -250, -500, -250---------------

- 1-500, -250, -500, -250, -500, -250. 30.05.2020.pdf[2 MB]
- 1-500, -250, -500, -250, -500, -250.pdf [2 MB]

----------------------- 1-500, -250, -500, -250----------------------

- 1-500, -250, -500, -250. 30.05.2020.pdf [2 MB]

----------------------------------20-2?10, -40-2?10---------------------------------


--------------------------------------20, -40-------------------------------------

-20, -40.pdf [512 KB]

--------------------------------1-100, -1-100-------------------------------

-1-100, 1-100.pdf [587 KB]
-1-100.pdf [799 KB]

--------------------------------1-100, -1-300-------------------------------

-1-100, -1-300. 19.02.2019.pdf [1 MB]

-------------------------------1-100, -1-300------------------------------

-1-100, -1-300. 06.06.2016.pdf [1 MB]

---------------------------------------1-100--------------------------------------

-1-100.pdf [1 MB]

----------------------------------------1-300---------------------------------------

1-300.doc [834 KB]

---------------------------------------1-300--------------------------------------

1-300.doc [240 KB]

-------------------------------1-300, -1-500------------------------------

-1-300, -1-500. 1.pdf [771 KB]
-1-300, -1-500. 2.pdf [1 MB]

----------------------------------------1-40---------------------------------------

-1-40. 08.02.2016.pdf [924 KB]
-1-40.pdf [869 KB]

----------------------------------------1-500---------------------------------------

1-500.doc [825 KB]

---------------------------------------1-500--------------------------------------

-1-500. 19.02.2019.pdf [1 MB]

---------------------------------------1-500--------------------------------------

-1-500. 06.06.2016.pdf [1 MB]

---------------------------------------1-500--------------------------------------

1-500.doc [242 KB]

--------------------------------------2-1003-------------------------------------

-2-1003. 12.09.2018.pdf [1 MB]

---------------------------------------2-300--------------------------------------

-2-300. 19.02.2019.pdf [1 MB]

---------------------------------------2-300--------------------------------------

-2-300. 19.02.2019.pdf [1 MB]

---------------------------------------2-300--------------------------------------

-2-300. 06.06.2016.pdf [1 MB]

--------------------------------------2-3003-------------------------------------

-2-3003. 06.06.2016.pdf [1 MB]

----------------------------------------2-40---------------------------------------

-2-40. 20.02.2018.pdf [1 MB]

-------------------2-50, -2-100, -2-300, -2-500------------------

-250, -2-100, -2-300, -2-500. 1.pdf [1 MB]
-250, -2-100, -2-300, -2-500. 2.pdf [1 MB]

---------------------------------------2-500--------------------------------------

-2-500. 19.02.2019.pdf [1 MB]

---------------------------------------2-500--------------------------------------

-2-500. 16.08.2018.pdf [1 MB]

--------------------------------------2-5003-------------------------------------

-2-5003. 18.05.2018.pdf [1 MB]

-----------------------------3-10-100, -3-10-200----------------------------

-3-10-100, -3-10-200. 19.02.2019.pdf [1 MB]

----------------------------3-10-100, -3-10-200---------------------------

-3-10-100, -3-10-200. 21.09.2018.pdf [1 MB]

---------------------------3-10-1003, -3-10-2003--------------------------

-3-10-1003, -3-10-2003. 01.11.2018.pdf [1 MB]

----------------------------3-10-100, -3-10-200---------------------------

-3-10-100, -3-10-200. 19.02.2019.pdf [1 MB]

---------------------------3-10-1001, -3-10-2001--------------------------

-3-10-1001, -3-10-2001. 01.11.2018.pdf [1 MB]

--------------------------------------3-10-40-------------------------------------

-3-10-40. 04.06.2018.pdf [1 MB]

--------------------------------------3-24-250-------------------------------------

-3-24-250. 30.05.2020.pdf [1 MB]

-------------------------------------3-24-250------------------------------------

-3-24-250. 20.06.2019.pdf [1 MB]

-------------------------------------3-24-250------------------------------------

-3-24-250. 16.11.2017.pdf [1007 KB]

-------------------------------------3-24-2503------------------------------------

-3-24-2503. 21.03.2019.pdf [1 MB]

------------------------------------- -------------------------------------


----------------------------------FMW-3, FMW-3T, FMW-3A----------------------------------

FMW-T. 05.03.2020.pdf [273 KB]
FMW. 05.03.2020.pdf [272 KB]
, FMW-3 200 . 2003 .pdf [809 KB]
, FMW-3 2003 .pdf [769 KB]
, FMW-3 2. 2003 .doc [1 MB]
, FMW-3, FMW-3T, FMW-3A. 13.03.2017.pdf [982 KB]
, FMW-3T 2003 .pdf [773 KB]
, FMW-3T 2. 2003 .doc [1 MB]
FMW-T. 04.03.2020.pdf [2 MB]
FMW. 04.03.2020.pdf [2 MB]

--------------------------------FMW-3B, FMW-3-1B, FMW-3-2B--------------------------------

, FMW-3B 2003 .doc [1 MB]
, FMW-3B, FMW-3-1B, FMW-3-2B 09.11.2016.pdf [1 MB]
, FMW-3B, FMW-3-1B, FMW-3-2B 2003 .pdf [667 KB]

-------------------------------------FMW-3C, FMW-3CA-------------------------------------

, FMW-3C, FMW-3-1C, FMW-3-2C 2009 .pdf [1 MB]
, FMW-3C, FMW-3CA. . 16. 21.03.2017.pdf [993 KB]

------------------------------------------FMW-4------------------------------------------

, FMW-4 2003 .pdf [730 KB]
, FMW-4 2. 2003 .doc [438 KB]
, FMW-4. 23.03.2017.pdf [1 MB]

----------------------------------------Forteza-12----------------------------------------

Forteza-12 2003 .doc [256 KB]
Forteza-12 2. 2003 .pdf [937 KB]

-------------------------------------RELIEF-CONNECT-1-------------------------------------

RELIEF-CONNECT-1.pdf [166 KB]

-------------------------------------RELIEF-CONNECT-2-------------------------------------

RELIEF-CONNECT-2.pdf [223 KB]

------------------------------------------8-----------------------------------------

-8 2003 .doc [378 KB]
, -8 2008 .pdf [255 KB]
, -8. 10.05.2018.pdf [423 KB]

------------------------------------------------------------------------------------

, 2007 .pdf [452 KB]

--------------------------------------------------------------------------------

. 2015 .pdf [81 KB]

-------------------------200, -100, -50, -200, -100, -50------------------------

-. . 3. 13.12.2018.pdf [248 KB]
. . 3. 13.12.2018.pdf [247 KB]
, -200, -100, -50, -200, -100, -50 2008 .pdf[873 KB]
-. . 3. 13.12.2018.pdf [1 MB]
. . 3. 13.12.2018.pdf [1 MB]

----------------------------200, -100, -50---------------------------

, -200, -100, -50. 09.02.2017.pdf [864 KB]
, -200, -100, -50. 2009 .pdf [670 KB]

----------------------200, -100, -50, -200, -100, -50---------------------

, -200, -100, -50, -200, -100, -50. 07.02.2017.pdf [750 KB]

------------------------------300-500, -300-500-----------------------------

, -300-500 2003 .doc [550 KB]
, -300-500, -300-500 2003 .pdf [863 KB]

-----------------------------300-500, -300-500----------------------------

, -300-500, -300-500. 07.02.2017.pdf [719 KB]

---------------------------50, -100, -200, -300, -500--------------------------

-50, -100, -200, -300, -500. . 3. 13.12.2018.pdf [1 MB]

---------------------------------------------------------------------------------

-. 29.11.2019.pdf [262 KB]
-.pdf [118 KB]

-----------------------------------------12---------------------------------------

--12. 29.11.2019.pdf [263 KB]

-----------------------------------------84---------------------------------------

--84. 28.11.2019.pdf [270 KB]

--------------------------------------------------------------------------------

--. 29.11.2019.pdf [263 KB]
--.pdf [118 KB]

--------------------------------------------------------------------------------

--. 29.11.2019.pdf [271 KB]
-.pdf [111 KB]

--------------------------------------------------------------------------------

-- ( ). 29.11.2019.pdf [261 KB]
-- ( ).pdf [119 KB]
-- ( ). 29.11.2019.pdf [262 KB]
-- ( ).pdf [119 KB]

--------------------------------------------------------------------------------

--. 29.11.2019.pdf [269 KB]

----------------------------------------84---------------------------------------

-84.pdf [160 KB]

------------------------------------------2DIN-----------------------------------------

-2DIN. 02.03.2020.pdf [241 KB]

-------------------------------------------4------------------------------------------

-4. 02.03.2020.pdf [242 KB]
-4. 2008 .pdf [118 KB]
-4. 09.11.2016.pdf [225 KB]

----------------------------------------485 DIN---------------------------------------

-485 DIN. 02.03.2020.pdf [426 KB]

-------------------------------------------6------------------------------------------

-6. 02.03.2020.pdf [235 KB]

------------------------------------------6.1-----------------------------------------

-6.1. 02.03.2020.pdf [231 KB]

--------------------------------------- 15-0,15---------------------------------------

15-0,15 . 1. 04.12.2019.pdf [276 KB]
15-0,15 . 2. 04.12.2019.pdf [280 KB]
15-0,15.pdf [147 KB]

-----------------------------------------12-1,0----------------------------------------

-12-1,0. 04.12.2019.pdf [277 KB]
-12-1.pdf [161 KB]

-----------------------------------------24-0,5----------------------------------------

-24-0,5. 04.12.2019.pdf [278 KB]
-24-0,5.pdf [160 KB]

-----------------------------------------12-1,5----------------------------------------

-12-1,5. 04.12.2019.pdf [289 KB]
-12-1,5.pdf [159 KB]

----------------------------------------15-0,15---------------------------------------

-15-0,15. 03.12.2019.pdf [339 KB]
-15-0,15.pdf [130 KB]

-----------------------------------------24-0,5----------------------------------------

-24-0,5. 04.12.2019.pdf [277 KB]
-24-0,5.pdf [159 KB]

-----------------------------------------24-0,7----------------------------------------

-24-0,7. 04.12.2019.pdf [279 KB]
-24-0,7.pdf [158 KB]

----------------------------------------02---------------------------------------

-02 2004 .doc [173 KB]
-02 2. 2004 .pdf [113 KB]

----------------------------------------2---------------------------------------

-2. 2015 .pdf [228 KB]

-------------------------------- RELIEF-GROUND--------------------------------

RELIEF-GROUND.pdf [177 KB]

------------------------------------------------------------------------------------

2009 .pdf [617 KB]

------------------------------------------30-----------------------------------------

-30. 05.06.2018.pdf [243 KB]
-30. 17.10.2019.pdf [1 MB]
-30. 2009 .pdf [516 KB]

---------------------------------------30(24)---------------------------------------

-30(24)-. 05.06.2018.pdf [245 KB]
-30(24)-. 17.10.2019.pdf [1 MB]
-30(24). 2015 .pdf [741 KB]

---------------------------------------30(24)---------------------------------------

-30(24)-. 05.06.2018.pdf [245 KB]
-30(24)-. 17.10.2019.pdf [1 MB]

---------------------------------------30(24)---------------------------------------

-30(24)-. 05.06.2018.pdf [245 KB]
-30(24)-. 17.10.2019.pdf [1 MB]

-----------------------------------------30----------------------------------------

-30. 20.03.2018.pdf [731 KB]

----------------------------------------42(24)---------------------------------------

-42(24). 05.06.2018.pdf [244 KB]
-42(24). 17.10.2019.pdf [2 MB]

------------------------------------------60-----------------------------------------

-60 2009 .pdf [985 KB]

----------------------------------------60(24)---------------------------------------

-60(24). 05.06.2018.pdf [245 KB]
-60(24). 17.10.2019.pdf [1 MB]

--------------------------------60(24), -84(24)-------------------------------

-60(24), -84(24). 2015 .pdf [655 KB]

-----------------------------------------60-----------------------------------------

-60-. 05.06.2018.pdf [243 KB]
-60-. 25.03.2020.pdf [1 MB]
-60. 2015 .pdf [808 KB]

-----------------------------------------60-----------------------------------------

-60-. 05.06.2018.pdf [243 KB]
-60-. 17.10.2019.pdf [1 MB]

-----------------------------------------60-----------------------------------------

-60-. 05.06.2018.pdf [243 KB]
-60-. 25.03.2020.pdf [1 MB]

----------------------------------------84(24)---------------------------------------

-84(24). 05.06.2018.pdf [244 KB]
-84(24). 17.10.2019.pdf [1 MB]

--------------------------------------------------------------------------------------

2005 .pdf [111 KB]

---------------------------------------- ----------------------------------------

. . 1.pdf [294 KB]

------------------------------------------------------------------------------------

. 2015 .pdf [1 MB]
. 28.11.2019.pdf [1 MB]

-------------------------------------------------------------------------------------

, -. 2003 .doc [586 KB]
, -. 2015 .pdf [961 KB]
, -. 2. 2003 .pdf [581 KB]

-------------------------------------------------------------------------------------

, - 2005 .doc [348 KB]
, - 2010 .pdf [1 MB]
, - 2. 2005 .pdf [594 KB]

-------------------------------------------02------------------------------------------

-02 2003 .doc [752 KB]
-02 2. 2003 .pdf [326 KB]
-02. 19.11.2019.pdf [630 KB]

-------------------------------------------03------------------------------------------

-03. 2003 .doc [173 KB]
-03. 06.11.2019.pdf [721 KB]
, -03. 2008 .pdf [494 KB]

-----------------------------------------102----------------------------------------

, -102 2010 .pdf [1 MB]

------------------------------------------------------------------------------------

. 2003 .doc [634 KB]
. 2015 .pdf [258 KB]
. 2. 2003 .pdf [226 KB]

---------------------------------------------------------------------------------

- 2003 .doc [811 KB]
- 2. 2003 .pdf [202 KB]
- 3. 2003 .pdf [267 KB]

---------------------------------------2-3 ()--------------------------------------

-2-3 ().pdf [87 KB]

--------------------------------------- 313-9---------------------------------------

2003 .doc [149 KB]
. 09.10.2019.pdf [1 MB]

------------------------------------------64-----------------------------------------

-64. 18.09.2018.pdf [1003 KB]

-------------------------------------------------------------------------------------

-. 09.10.2019.pdf [460 KB]
-. 2003 .pdf [194 KB]

-----------------------------------------------------------------------------------

- 2008 .pdf [180 KB]
-. 09.10.2019.pdf [457 KB]

-----------------------------------------------------------------------------------

-. 09.10.2019.pdf [352 KB]
-. 2009 .pdf [156 KB]

------------------------------------------------------------------------------------

(-40). 17.10.2019.pdf [1 MB]
(-50). 17.10.2019.pdf [1 MB]
(-60). 17.10.2019.pdf [1 MB]
. 17.10.2019.pdf [896 KB]
. 2004 .doc [1 MB]
. 2. 2004 .pdf [561 KB]

------------------------------------------2-----------------------------------------

-2 . 17.10.2019.pdf [1 MB]
-2. 17.10.2019.pdf [1 MB]

--------------------------------, --------------------------------

-, -. 2008 .pdf [583 KB]
-, -. 2. 2008 .pdf [935 KB]

-------------------------------------------------------------------------

- 2009 .pdf [826 KB]

--------------------------- ---------------------------

2004 .pdf [362 KB]

----------------------------------------310-20----------------------------------------

31020 2002 .doc [339 KB]

--------------------------------------440, 460--------------------------------------

440 () 2007 .pdf [356 KB]
440 2006 .pdf [333 KB]
44060 2003 .doc [934 KB]

------------------------------------------------------------------------------------

2008 .pdf [278 KB]

-----------------------------------10, -30----------------------------------

-10, -30. 01.08.2019.pdf [626 KB]
-10.pdf [180 KB]
-30. 2.pdf [196 KB]
-30.doc [176 KB]

------------------------------------------2-----------------------------------------

-2.pdf [214 KB]
-2 2002 .doc [152 KB]
-2 2. 2002 .pdf [172 KB]

------------------------------------------2-----------------------------------------

-2 2002 .pdf [179 KB]

-------------------------, -485, -, --------------------------

, , - 2006 .doc [955 KB]
, -485, -, - 2006 .pdf [809 KB]

-------------------------------, --------------------------------

, -, --. 01.08.2019.pdf [1 MB]

------------------------------------------------------------------------------

-- () 2009 .pdf [600 KB]
-- 2009 .pdf [600 KB]

-----------------------------------, -----------------------------------

, --, --. 01.08.2019.pdf [983 KB]

----------------------------------------32----------------------------------------

32.pdf [949 KB]

------------------------------------------2-----------------------------------------

, -2 2003 .doc [789 KB]
, -2 2. 2003 .pdf [758 KB]

-----------------------------50, -100, -200----------------------------

-50, -100, -200. 04.03.2020.pdf [268 KB]
-50, -100, -200. 04.03.2020.pdf [1 MB]
, -100 2010 .pdf [1 MB]

------------------------------------------DIN----------------------------------------

--DIN. 14.05.2018.pdf [406 KB]

-------------------------------------------------------------------------------------

-. 26.07.2016.pdf [444 KB]

----------------------------------------12---------------------------------------

, -12. 14.07.2017.pdf [831 KB]

----------------------------------------12---------------------------------------

, -12. 31.01.2017.pdf [822 KB]

---------------------------300 Bluetooth, -500 Bluetooth--------------------------

, -300 Bluetooth, -500 Bluetooth. 06.10.2016.pdf [911 KB]

--------------------50 Bluetooth, -100 Bluetooth, -200 Bluetooth-------------------

, -50 Bluetooth, -100 Bluetooth, -200 Bluetooth. 12.10.2016.pdf [827 KB]

-----------------------------50, -100, -200, -300, -500----------------------------

-50, -100, -200, -300, -500. 17.12.2018.pdf [248 KB]
-50, -100, -200, -300, -500. 11.09.2019.pdf [2 MB]

--------------------------50, -100, -200, -300, -500-------------------------

-50, -100, -200, -300, -500. 17.12.2018.pdf [248 KB]
-50, -100, -200, -300, -500. 17.12.2018.pdf [1 MB]

---------------------------------------------------------------------------------

-.pdf [91 KB]
-.pdf [87 KB]
2006 .pdf [364 KB]

--------------------------50, -100, -200, -300, -500-------------------------

-50, -100, -200, -300, -500. 10. 12.2018.pdf [313 KB]
-50, -100, -200, -300, -500. 12.08.2019.pdf [2 MB]

-------------------50-Bluetooth, -100-, -200-, -300-, -500-------------------

-50-Bluetooth, -100-, -200-, -300-, -500-. 11.12.2018.pdf [315 KB]
-50-Bluetooth, -100-, -200-, -300-, -500-. 12.08.2019.pdf [2 MB]

---------------------50-, -100-, -200-, -300-, -500---------------------

-50-, -100-, -200-, -300-, -500-. 11.12.2018.pdf [314 KB]
-50-, -100-, -200-, -300-, -500-. 12.08.2019.pdf [2 MB]

----------------------------------------------------------------------------------

2006 .doc [1 MB]
- 2007 .pdf [395 KB]
- 2007 .pdf [395 KB]
- 2007 .pdf [415 KB]

------------------------------------------------------------------------------------

, 2006 .doc [943 KB]
(-60 C) 2006 .pdf [489 KB]
2006 .pdf [489 KB]

-----------------------------------------10----------------------------------------

-10. 28.03.2018.pdf [1 MB]

-----------------------------------------30----------------------------------------

-30. 27.09.2019.pdf [1 MB]

----------------------------------- -----------------------------------


-------------------------------------- 407-3-------------------------------------

-. 1987 .doc [6 MB]

-------------------------------------------------------------------------------------

-. 1999 .pdf [256 KB]

------------------------------------------9-17------------------------------------------

9-17.doc [278 KB]

--------------------------------------------------------------------------------

.doc [3 MB]

------------------------------------------4-1-----------------------------------------

-4-1.doc [4 MB]

--------------------------------------------------------------------------------------

. 18.02.1998 .doc [57 KB]
. 08.10.1997 .doc [61 KB]
. 05.01.1997 .doc [102 KB]
. 1997 .pdf [318 KB]

------------------------- -------------------------

+ 4 5.doc [50 KB]
+ 9 10.doc [51 KB]
+ 1.doc [118 KB]
+ 11.doc [67 KB]
+ 12.doc [73 KB]
+ 13.doc [33 KB]
+ 14.doc [85 KB]
+ 15.doc [87 KB]
+ 2.doc [71 KB]
+ 3.doc [101 KB]
+ 6.doc [108 KB]
+ 7.doc [32 KB]
+ 8.doc [93 KB]
.doc [240 KB]

--------------------------------------1 303-1-------------------------------------

-1.doc [2 MB]

--------------------------------------2 303-1-------------------------------------

-2.doc [1 MB]

-------------------------------------------------------------------------------------

-. 08.10.1997 .doc [87 KB]
-. 08.10.1997 .doc [60 KB]

--------------------- . -. 10.06.1997 ---------------------

.doc [28 KB]
. -. 10.06.1997 .doc [212 KB]

---------------------- -. 05.01.1997 ----------------------

+ .doc [31 KB]
+ .doc [28 KB]
+ .doc [23 KB]
-. 05.01.1997 .doc [131 KB]

-----------------------------------------------------------------------------------

-. 1997 .pdf [486 KB]

------------------------------------------------------------------------------------

.doc [2 MB]

------------------------------------------3-----------------------------------------

-3.doc [873 KB]

----------------------------------6 0104064-20---------------------------------

-6. 1991 .doc [6 MB]
-6. 1998 .PDF [565 KB]

-------------------------- -6--------------------------

-6.doc [74 KB]
.doc [21 KB]

----------------------------- -6-----------------------------

-6.doc [77 KB]
.doc [21 KB]

----------------------- -6-----------------------

.doc [133 KB]
-6.doc [532 KB]
.doc [43 KB]
9, -6.doc [147 KB]

---------------------------------------- 31----------------------------------------

-31.doc [798 KB]

--------------------------------------- 31-1---------------------------------------

-31-1.doc [1001 KB]

--------------------------------------- 3-1---------------------------------------

3-1. 1984 .doc [432 KB]

-----------------------------------------37----------------------------------------

-37. 1981 .doc [1 MB]

----------------------------------37 059-1-1---------------------------------

-37. 1985 .doc [380 KB]
-37. 1990 .doc [1 MB]

-----------------------------------------39----------------------------------------

-39.doc [2 MB]

---------------------------------40 059-1-1--------------------------------

-40.doc [1 MB]

----------------------------------43 051-4-1---------------------------------

-43.doc [4 MB]

-------------------------------- 01041-10-50-1--------------------------------

.doc [5 MB]

------------------------------- 01041-10-50-1-1------------------------------

-.doc [27 MB]

------------------------------------------1-1-----------------------------------------

-1-1.doc [1 MB]

--------------------------------------4 409-1-------------------------------------

-4.doc [357 KB]
-4.doc [3 MB]

----------------------------------- 013-2-1-----------------------------------

. 1987 .doc [1 MB]
.doc [3 MB]

--------------------------------------------------------------------------------


---------------------------------- 4, 6, 8, 10, 12----------------------------------

8. 19.07.2019.pdf [208 KB]
4, 6, 8, 10, 12. 17.07.2019.pdf [1 MB]
-8. 19.07.2019.pdf [164 KB]
-1. 19.07.2019.pdf [162 KB]

----------------------------------------- 2-----------------------------------------

2. 29.10.2019.pdf [53 KB]
2. 12.12.2019.pdf [919 KB]

--------------------------------------4.1, -6.1-------------------------------------

. 21.12.2018.pdf [201 KB]
-4.1, -6.1. 18.02.2020.pdf [2 MB]
. 19.02.2020.pdf [245 KB]

-------------------------------------------100------------------------------------------

-100. 15.09.2006 .doc [64 KB]
-100. 2005 .doc [1015 KB]

-------------------------------------------12------------------------------------------

-12. 12.07.2010.doc [60 KB]
-12. 2019 .pdf [162 KB]
-12. 27.02.2008.pdf [157 KB]
-12. 12.07.2010.doc [209 KB]
-12. 2019 .pdf [348 KB]
-12. 27.02.2008.pdf [242 KB]

------------------------------------40, -50, -70-----------------------------------

-40, -50, -70.doc [49 KB]
-40. 12.07.2010.doc [70 KB]
-40. 2019 .pdf [198 KB]
-40.doc [41 KB]
-50. 12.07.2010.doc [70 KB]
-50. 2019 .pdf [197 KB]
-50.doc [41 KB]
-70. 12.07.2010.doc [104 KB]
-70.doc [41 KB]
-40, -50, -70. 12.07.2010.doc [337 KB]
-40, -50, -70. 2019 .pdf [3 MB]
-40, -50, -70.doc [200 KB]
, -40, -50, -70.doc [198 KB]

-----------------------------------------2-100-----------------------------------------

2-100. 13.09.2010.doc [64 KB]
2-100. 2019 .pdf [199 KB]
2-100. 26.02.2008.pdf [151 KB]
2-100. 13.09.2010.doc [676 KB]
2-100. 2019 .pdf [594 KB]
2-100. 26.02.2008.pdf [645 KB]

------------------------------------------2-50------------------------------------------

2-50. 12.07.2010.doc [70 KB]
2-50. 27.02.2008.pdf [151 KB]
2-50. 12.07.2010.doc [564 KB]
2-50. 12.12.2013.pdf [317 KB]
2-50. 27.02.2008.pdf [955 KB]

-----------------------------------------2-50-----------------------------------------

2-50. 12.07.2010.doc [59 KB]
2-50. 2019 .pdf [162 KB]
2-50. 27.02.2008.pdf [191 KB]
2-50. 12.07.2010.doc [585 KB]
2-50. 2019 .pdf [546 KB]
2-50. 27.02.2008.pdf [622 KB]

------------------------------------------2-70------------------------------------------

2-70. 12.12.2013.pdf [1 MB]

-----------------------------------------2-70-----------------------------------------

2-70. 2019 .pdf [407 KB]
2-70. 2019 .pdf [1 MB]

-------------------------------------------1------------------------------------------

-1. 01.08.2018.pdf [52 KB]
-1. 20.04.2010.doc [117 KB]
-1. 22.02.2008.pdf [222 KB]
-1. 1.doc [50 KB]
-1. 2.doc [70 KB]
-1. 3.doc [476 KB]

-------------------------------------------3------------------------------------------

-3. 10.10.2012.pdf [466 KB]
-3. 20.04.2010.doc [159 KB]
-3. 22.02.2008.pdf [264 KB]

--------------------------------------------------------------------------------------

.doc [313 KB]
-2.doc [265 KB]
.doc [229 KB]
RS-485-RS-232.doc [209 KB]
.doc [301 KB]
.doc [237 KB]
-, -.doc [243 KB]
.doc [565 KB]
.doc [813 KB]

----------------------------------------------------------------------------------

. 10.06.2010 .doc [171 KB]
. 10.06.2010 .doc [396 KB]

--------------------------------------------------------------------------------------

-6.4. 10.04.2019.pdf [266 KB]
-1-012. 10.04.2019.pdf [279 KB]
2-100-312. 21.07.2014.pdf [433 KB]
-1.4. 10.04.2019.pdf [383 KB]
-1. 10.04.2019.pdf [1 MB]
-1.4. 10.04.2019.pdf [240 KB]
-1.4. 10.04.2019.pdf [240 KB]
-1. 10.04.2019.pdf [251 KB]

------------------------------------------1-15-----------------------------------------

-1-15. 22.11.2017.pdf [52 KB]
-1-15.pdf [1 MB]

------------------------------------------2-75-----------------------------------------

-2-75. 26.02.2020.pdf [52 KB]
-2-75. 21.05.2018.pdf [7 MB]

-----------------------------------------4-100----------------------------------------

-4-100. 27.02.2020.pdf [52 KB]
-4-100. 26.05.2018.pdf [9 MB]

------------------------------------------------------------------------------------

. 2017 .pdf [106 KB]
-2. 2017 .pdf [114 KB]
. 2017 .pdf [86 KB]
. 2017 .pdf [86 KB]
. 2017 .pdf [106 KB]
-2. 01.03.2019.pdf [239 KB]
. 7. 11.2015 .pdf [2 MB]
-1. 06.08.2018.pdf [64 KB]

----------------------------- . -, -, ------------------------------

. 20.02.2010 .doc [299 KB]
. 20.09.2010 .doc [287 KB]
. 22.02.2008 .pdf [232 KB]
-2. 20.09.2010 .doc [151 KB]
RS-485-RS-232. 20.02.2010 .doc [85 KB]
RS-485-RS-232. 26.02.2008 .pdf [223 KB]
USB-RS-485. 20.02.2010 .doc [68 KB]
, , . 20.02.2010 .doc [323 KB]
. 20.09.2010 .doc [97 KB]
. 26.02.2008 .pdf [216 KB]
. 20.02.2010 .doc [59 KB]
. 22.02.2008 .pdf [159 KB]
-, -. 20.09.2010 .doc [131 KB]
-, -. 26.02.2008 .pdf [200 KB]
. 22.02.2008 .pdf [208 KB]
.pdf [981 KB]
. -, -, -. 20.09.2010 .doc [1 MB]
. -, -, -.pdf [747 KB]
. -, -, -. 20.09.2010 .doc [63 KB]
. -, -, -. 22.02.2008 .pdf [161 KB]
. 20.02.2010 .doc [32 KB]
. 20.02.2010 .doc [103 KB]
. 20.02.2010 .doc [37 KB]

------------------------------------------------------------------------------------


-------------------------------------- 305-3-2--------------------------------------

. 2006 .doc [441 KB]

------------------------------ 02 01055-1-2-----------------------------

- 02.doc [439 KB]

------------------------------------------------------------------------------------


-----------------------------------------16-2----------------------------------------

-16-2. 2003 .doc [348 KB]

----------------------------------------16-2---------------------------------------

-16-2. 2003 .doc [314 KB]

---------------------------------------- 2003----------------------------------------

RS232-485.doc [454 KB]
2400. 2003 .doc [580 KB]

---------------------------------------1-8, 1-256---------------------------------------

1-8, 1-256. 2002 .doc [1 MB]

------------------------------------------------------------------------------------


------------------------------------- 408-3-------------------------------------

. . 1. 24.03.2014.pdf [84 KB]
. . 2. 15.04.2016.pdf [109 KB]
.pdf [163 KB]
. 1999 .pdf [91 KB]
. . 1. 24.03.2014.pdf [77 KB]
. 1999 .pdf [288 KB]
. 11.01.2015.pdf [116 KB]

-----------------------------------1 01055-1-1----------------------------------

-1.pdf [216 KB]
-1 1999 .pdf [172 KB]
-1 1999 .pdf [256 KB]
-1.pdf [147 KB]

-----------------------1 329-8, -1 1 329-8-1----------------------

Installation Guide -1 . 1. . 3. 19.09.2019.pdf [178 KB]
-1.pdf [57 KB]
-1, -1 . 1. . 1. 08.11.2013.pdf [95 KB]
-1. . 7. 22.11.2018.pdf [166 KB]
-1.pdf [52 KB]

---------------------------- 0103040516139-8-32-1----------------------------

.pdf [209 KB]
2004 .pdf [355 KB]
, .pdf [57 KB]
.pdf [65 KB]
--1.pdf [91 KB]
--2.pdf [104 KB]
II, II.pdf [1 MB]

------------------------------------- 2003 -------------------------------------

2003 .pdf [551 KB]
2003 .pdf [1 MB]

------------------------------- 2. 2005 -------------------------------

. 1. 2. 2005 .pdf [813 KB]
. 2. 2. 2005 .pdf [105 KB]
. 3. 2. 2005 .pdf [162 KB]
. 4. 2. 2005 .pdf [82 KB]
. 5. 2. 2005 .pdf [176 KB]
. 6. 2. 2005 .pdf [96 KB]

-----------------------------------------Ex----------------------------------------

- . 2 .pdf [132 KB]
-.pdf [84 KB]
-Ex.pdf [282 KB]
-Ex 3. 2010 .pdf [1 MB]
-Ex 1.pdf [539 KB]
-Ex 2.pdf [1 MB]

------------------------------ 010304059-8-80-2-----------------------------

2 - 2. 2007 .pdf [319 KB]
3 - 1. 2009 .pdf [779 KB]
-.pdf [143 KB]
- 1.pdf [704 KB]
- 2.pdf [1 MB]
-.pdf [111 KB]
- 3. 2007 .pdf [2 MB]
-.pdf [1 MB]
-.pdf [30 KB]

---------------------------------- - 4----------------------------------

-. . 1-115. 4. 2008 .pdf [1 MB]
-. . 116-219. 4. 2008 .pdf [1 MB]

---------------------------------------------------------------------------------

-3. 10.01.2015 .pdf [465 KB]
-3.pdf [83 KB]
-, - . 1.pdf [98 KB]
- . 3. 01.07.2014 .pdf [150 KB]
-.pdf [86 KB]
-12-, -12-.pdf [145 KB]
-. 2. 14.10.2014 .pdf [54 KB]
-.pdf [76 KB]
-. 10.01.2015 .pdf [852 KB]
-.pdf [1001 KB]
-. 2. 11.08.2014 .pdf [67 KB]
-.pdf [94 KB]

-------------------------------------- 414-7--------------------------------------

. . 1. 05.06.2014.pdf [190 KB]
. . 1. 05.06.2014.pdf [68 KB]

--------------------------------------- 102-33--------------------------------------

-. 3. 25.09.2014 .pdf [117 KB]
-.pdf [48 KB]

-------------------------------------- 315-1--------------------------------------

. . 2. 20.02.2014.pdf [137 KB]
. 1.pdf [258 KB]
. 2.pdf [207 KB]
. . 3. 10.11.2014.pdf [162 KB]
. 1. 2012 .pdf [370 KB]
. . 2. 20.02.2014.pdf [61 KB]
. . 3. 02.06.2015.pdf [63 KB]
.pdf [66 KB]

--------------------------------------2 315-7-------------------------------------

-2. . 1. 20.05.2014.pdf [116 KB]
-2. 1. 2012 .pdf [146 KB]
-2. . 1. 20.05.2014.pdf [72 KB]

------------------------------------- 315-1-2------------------------------------

-. . 2. 19.04.2016.pdf [327 KB]
-. . 0. 29.04.2015.pdf [76 KB]

------------------------------------- 315-1-1------------------------------------

-. . 1. 05.09.2013.pdf [779 KB]
-. . 2. 10.11.2014.pdf [156 KB]
-.pdf [242 KB]

-------------------1 409-35, -1 209-28, -1 309-15------------------

-1. . 2. 11.02.2013.pdf [338 KB]
-1. . 6. 16.08.2019.pdf [332 KB]
-1.pdf [65 KB]
-1. . 5. 16.08.2019.pdf [320 KB]
-1. . 3. 16.08.2019.pdf [274 KB]
-1. 10.01.2015.pdf [210 KB]
-1.pdf [172 KB]
-1.pdf [89 KB]

-------------------2 409-44, -2 209-31, -2 309-20------------------

-2. 10.01.2015 .pdf [224 KB]
-2.pdf [95 KB]
-2. 10.01.2015 .pdf [62 KB]
-2.pdf [104 KB]
-2.pdf [86 KB]
-2.pdf [42 KB]

-------------------3 409-38, -3 209-34, -3 309-29------------------

-3.pdf [491 KB]
-3.pdf [69 KB]

------------------------------------------4-----------------------------------------

-4. . 10. 24.04.2019.pdf [329 KB]
-4. . 8. 04.12.2017.pdf [312 KB]

---------------------------------------4 . 1--------------------------------------

-4 . 1. . 3. 15.12.2017.pdf [328 KB]

---------------------------------------4 . 2--------------------------------------

-4 . 2. . 2. 13.03.2017.pdf [329 KB]

------------------------------------------4i-----------------------------------------

-4i. . 0. 31.07.2018.pdf [316 KB]

------------------------------------------4-----------------------------------------

-4. . 3. 15.12.2017.pdf [312 KB]

------------------------------------------4-----------------------------------------

-4. . 4. 15.12.2017.pdf [329 KB]
-4. . 5. 10.04.2019.pdf [298 KB]

--------------------------------------4 . 1-------------------------------------

-4 . 1. . 0. 26.11.2018.pdf [315 KB]

--------------------------------------5 409-56-------------------------------------

-5. . 5. 07.04.2017.pdf [192 KB]

------------------------------------------6-----------------------------------------

-6. . 1. 12.05.2014.pdf [89 KB]
-6. . 2. 06.09.2019.pdf [253 KB]

------------------------------------------7-----------------------------------------

-7. . 8. 18.04.2019.pdf [210 KB]

------------------------------------------7i-----------------------------------------

-7i. . 2. 18.04.2019.pdf [305 KB]

------------------------------------------7-----------------------------------------

-7. . 1. 18.04.2019.pdf [231 KB]

--------------------------------------7 . 1-------------------------------------

-7 . 1. . 1. 18.04.2019.pdf [262 KB]

--------------------------------------8 409-59-------------------------------------

-8. . 5. 20.03.2019.pdf [297 KB]

-------------------------------------8 309-33------------------------------------

-8. . 5. 20.03.2019.pdf [273 KB]

-------------------------------------- 309-30-------------------------------------

-. . 2. 06.04.2015.pdf [283 KB]

--------------------------------------- . 3--------------------------------------

- . 3. . 0. 01.03.2016.pdf [325 KB]

--------------------------1-1, -1-2, -1-3, -1-2-------------------------

-1-1, -1-2, -1-3, -1-2. 08.06.2020.pdf [275 KB]
-1-1, -1-2, -1-3, -1-2.pdf [459 KB]
-1-1, -1-2.pdf [191 KB]

--------------------------------------2 329-2-------------------------------------

-2. . 1. 10.04.2014 .pdf [140 KB]
-2.pdf [61 KB]
-2. 2001 .pdf [70 KB]
-2. 1. 12.11.2013 .pdf [54 KB]
-2. 2000 .pdf [249 KB]
-2. 09.01.2015 .pdf [97 KB]

------------------3 329-4, -3 329-11, -3 329-13-----------------

-3, -3.pdf [80 KB]
-3. . 1. 18.09.2013.pdf [59 KB]
-3. . 4. 27.12.2016.pdf [138 KB]
-3. . 2. 10.11.2014.pdf [78 KB]
-3. . 4. 08.11.2018.pdf [127 KB]
-3.pdf [90 KB]
-3. 2002 .pdf [73 KB]
-3, -3.pdf [220 KB]
-3. 2002 .pdf [182 KB]
-3, -3, -3. . 2. 18.03.2014.pdf [56 KB]
-3, -3, -3. . 3. 18.09.2014.pdf [60 KB]
-3, -3, -3. . 4. 26.12.2016.pdf [72 KB]
-3, -3.pdf [91 KB]

-------------------------------------4 329-10------------------------------------

-4. . 2. 25.09.2014.pdf [146 KB]
-4. . 1. 30.09.2013.pdf [311 KB]
-4.pdf [99 KB]
-4. . 1. 30.09.2013.pdf [553 KB]
-4. . 2. 25.09.2014.pdf [100 KB]
-4. . 4. 26.09.2019.pdf [119 KB]
-4.pdf [92 KB]

-------------------------------------Ex 329-9------------------------------------

-Ex.pdf [74 KB]
-Ex. . 1. 10.11.2014.pdf [97 KB]
-Ex. . 2. 20.05.2014.pdf [70 KB]
-Ex. . 4. 08.06.2016.pdf [95 KB]
-Ex.pdf [57 KB]

--------------------------------------- 313-8---------------------------------------

. . 4. 28.10.2015.pdf [142 KB]
. . 6. 19.11.2016.pdf [320 KB]

-------------------------------------------------------------------------------------

-. . 1. 01.10.2014.pdf [449 KB]

------------10, -10, -10, -10, -10-01, -10-----------

-10. 1.pdf [109 KB]
-10. 2.pdf [142 KB]
-10. . 2. 18.11.2016.pdf [198 KB]
-10. 1.pdf [114 KB]
-10. 2.pdf [141 KB]
-10. . 2. 18.11.2016.pdf [192 KB]
-10. 1.pdf [118 KB]
-10. 2.pdf [147 KB]
-10. . 2. 18.11.2016.pdf [197 KB]
-10. 1.pdf [86 KB]
-10. 2.pdf [105 KB]
-10. . 5. 23.10.2018.pdf [303 KB]
-10, -10-01. . 2. 26.01.2015.pdf [421 KB]
-10, -10-01. . 4. 20.12.2017.pdf [401 KB]
-10, -10-01.pdf [142 KB]
-10. 1.pdf [98 KB]
-10. 2.pdf [119 KB]
-10, -10, -10, -10, -10.pdf [80 KB]
-10, -10, -10, -10, -10-01, -10.pdf [58 KB]
-10, -10, -10. . 3. 19.11.2016.pdf [102 KB]
-10, -10, -10.pdf [68 KB]
-10. . 0. 19.11.2016.pdf [104 KB]
-10. . 3. 26.10.2018.pdf [73 KB]

------------------------------------10 409-62-----------------------------------

-10. . 3. 23.10.2018.pdf [349 KB]

------------------------12, -12-1, -12, -12-1-----------------------

-12-1. 1.pdf [149 KB]
-12-1. 2.pdf [96 KB]
-12-1. 1.pdf [211 KB]
-12-1. 2.pdf [95 KB]
-12. 1.pdf [117 KB]
-12. 2.pdf [131 KB]
-12. . 4. 17.11.2016.pdf [285 KB]
-12. 1.pdf [135 KB]
-12. 2.pdf [104 KB]
-12. . 2. 17.11.2016.pdf [166 KB]
-12, -12-1, -12, -12-1.pdf [89 KB]
-12, -12-1.pdf [130 KB]
-12-1. . 3. 25.02.2015.pdf [298 KB]
-12-1. . 3. 25.02.2015.pdf [254 KB]
-12. . 8. 17.10.2017.pdf [76 KB]

-----------------15 409-23, -15 209-21, -15 309-10----------------

-15. 1.pdf [155 KB]
-15. 2.pdf [128 KB]
-15. . 4. 05.10.2018.pdf [444 KB]
-15. 1.pdf [164 KB]
-15. 2.pdf [131 KB]
-15. . 2. 13.06.2018.pdf [469 KB]
-15. 1.pdf [165 KB]
-15. 2.pdf [113 KB]
-15. . 2. 13.06.2018.pdf [435 KB]
-15, -15, -15. 1.pdf [123 KB]
-15, -15, -15. 2.pdf [85 KB]
-15, -15, -15. . 2. 10.11.2014.pdf [107 KB]

-----------------16 409-30, -16 209-27, -16 309-14----------------

-16. 1.pdf [283 KB]
-16. 2.pdf [138 KB]
-16. . 5. 20.10.2017.pdf [318 KB]
-16. 1.pdf [208 KB]
-16. 2.pdf [149 KB]
-16. . 3. 20.10.2017.pdf [282 KB]
-16. 1.pdf [210 KB]
-16. 2.pdf [139 KB]
-16. . 3. 20.10.2017.pdf [298 KB]
-16, -16, -16. 1.pdf [148 KB]
-16, -16, -16. 2.pdf [101 KB]
-16. . 3. 18.10.2017.pdf [79 KB]
-16. . 3. 18.10.2017.pdf [78 KB]
-16. . 3. 18.10.2017.pdf [79 KB]

-------------------------------------17 409-36------------------------------------

-17. 1.pdf [487 KB]
-17. 2.pdf [135 KB]
-17. . 1. 20.02.2014.pdf [158 KB]
-17. . 1. 20.02.2014.pdf [55 KB]
-17.pdf [82 KB]

------------18 409-40, -18 209-30, -18 319-18, -18-----------

-18. 1.pdf [94 KB]
-18. 2.pdf [134 KB]
-18. . 4. 24.02.2016.pdf [162 KB]
-18. 1.pdf [98 KB]
-18. 2.pdf [125 KB]
-18. . 2. 24.02.2016.pdf [154 KB]
-18. 1.pdf [53 KB]
-18. 2.pdf [114 KB]
-18. . 2. 24.02.2016.pdf [142 KB]
-18. . 3. 24.02.2016.pdf [194 KB]
-18. 1.pdf [61 KB]
-18. 2.pdf [52 KB]
-18. . 6. 07.06.2016.pdf [109 KB]

-------------------------------------19 409-41------------------------------------

-19. 1.pdf [129 KB]
-19. 2.pdf [117 KB]
-19. . 6. 02.03.2017.pdf [212 KB]
-19. 1.pdf [49 KB]
-19. 2.pdf [85 KB]
-19. . 11. 21.03.2018.pdf [77 KB]

---------------------------20 409-45, -20 309-23--------------------------

-20. 06.06.2012.pdf [149 KB]
-20. . 3. 06.08.2019.pdf [256 KB]
-20.pdf [152 KB]
-20. 06.06.2012.pdf [138 KB]
-20. . 3. 06.08.2019.pdf [220 KB]
-20.pdf [104 KB]
-20, -20. 1.pdf [71 KB]
-20, -20. 2.pdf [107 KB]
-20, -20. . 3. 06.08.2019.pdf [82 KB]

-------------------------------------21 409-52------------------------------------

-21. 10.01.2015.pdf [264 KB]
-21.pdf [205 KB]
-21. . 3. 01.08.2019.pdf [266 KB]
-21. 11.01.2015.pdf [144 KB]
-21.pdf [81 KB]

---------------------------22 409-55, -22 309-32--------------------------

-22. . 2. 06.10.2015.pdf [342 KB]
-22. . 2. 06.10.2015.pdf [271 KB]
-22, -22. . 3. 06.10.2015.pdf [169 KB]

-------------------------------------24 409-63------------------------------------

-24. . 0. 19.11.2016.pdf [296 KB]
-24. . 0. 19.11.2016.pdf [70 KB]

--------------------6 409-2, -6 209-8, -6 309-2-------------------

-6. 2002 .pdf [73 KB]
-6. . 1. 29.01.2014.pdf [73 KB]
-6, -8 .pdf [35 KB]
-6. 1998 .doc [2 MB]
-6. 2003 .pdf [211 KB]

--------------------8 409-5, -8 209-13, -8 309-6-------------------

-8.pdf [103 KB]
-8. 2002 .pdf [78 KB]
-8. 2003 .pdf [207 KB]

-----------------------------9 409-8, -9 409-48----------------------------

-9, -9. . 2. 06.12.2013.pdf [530 KB]
-9, -9. . 3. 18.11.2016.pdf [173 KB]
-9, -9.pdf [79 KB]
-9. 1.pdf [113 KB]
-9. 2.pdf [79 KB]
-9, -9. . 4. 17.10.2019.pdf [97 KB]
-9, -9.pdf [85 KB]
-9.pdf [64 KB]

-------------------------------------CK-2 409-7------------------------------------

--2. 09.01.2015 .pdf [849 KB]
--2.pdf [105 KB]
--2. 11.01.2015 .pdf [91 KB]
--2.pdf [87 KB]

-------------------------------------- 409-6-------------------------------------

-. 10.01.2015 .pdf [188 KB]
-.pdf [98 KB]
-. 10.01.2015 .pdf [111 KB]
-.pdf [64 KB]

-------------------, --1, -2, --, -2-------------------

--1. . 1. 03.04.2014.pdf [645 KB]
--1.pdf [202 KB]
-. . 1. 15.04.2014.pdf [327 KB]
-. . 5. 30.08.2019.pdf [367 KB]
-.pdf [114 KB]
-2. . 1. 10.04.2014.pdf [95 KB]
-2. . 4. 01.10.2016.pdf [282 KB]
-2.pdf [614 KB]
-, --1, -2, --.pdf [61 KB]
-, --1.pdf [64 KB]
-. . 10. 30.08.2019.pdf [105 KB]
-. . 8. 18.05.2017.pdf [89 KB]

------------------------------------- 309-21-----------------------------------

--. 1.pdf [70 KB]
--. 2.pdf [73 KB]
--. 10.01.2015 .pdf [139 KB]
--.pdf [51 KB]

--------------------------------------1 313-1-------------------------------------

-1, -1-1. . 1. 15.07.2013 .pdf [50 KB]
-1, -1-1.pdf [140 KB]
-1. 2002 .pdf [80 KB]
-1. 10.01.2015 .pdf [40 KB]

-------------------------------------1-1 313-1------------------------------------

-1-1. 2001 .pdf [69 KB]
-1-1. 2002 .pdf [1 MB]

--------------------------2 313-5-1, -2-10 313-5-2-------------------------

-2. . 4. 10.04.2017.pdf [354 KB]
-2. . 1. 09.10.2013.pdf [69 KB]
-2.pdf [116 KB]
-2-10. . 1. 19.03.2014.pdf [58 KB]
-2-10.pdf [129 KB]
-2. . 2. 18.02.2014.pdf [1 MB]
-2.pdf [75 KB]
-2, -2-10.pdf [1 MB]
-2.pdf [1021 KB]
-2. . 4. 10.11.2014.pdf [118 KB]

--------------------------------------3 315-10-------------------------------------

-3. . 6. 20.09.2018.pdf [216 KB]
-3. . 00. 12.05.2014.pdf [1 MB]
-3. . 6. 20.09.2018.pdf [119 KB]

------------------------------------3 315-10-1-----------------------------------

-3. . 2. 30.10.2018.pdf [261 KB]
-3. . 3. 15.02.2019.pdf [268 KB]

--------------------------------------Ex 313-6-------------------------------------

-Ex. . 1. 24.02.2015.pdf [114 KB]
-Ex. 10.01.2015.pdf [72 KB]
-Ex.pdf [94 KB]
-Ex. . 2. 24.02.2015.pdf [69 KB]
-Ex. 10.01.2015.pdf [287 KB]
-Ex.pdf [51 KB]

-----------------------------------------------------------------------------------

-Ex. . 1. 22.04.2014.pdf [75 KB]
-Ex.pdf [82 KB]
-16. . 1. 09.09.2015.pdf [90 KB]
-4. . 1. 09.09.2015.pdf [90 KB]
-8. . 1. 09.09.2015.pdf [90 KB]
-.pdf [55 KB]
--. . 0. 08.07.2014.pdf [246 KB]
-. . 1.09. 2017 .pdf [2 MB]
-. . 1.10. 2017 .pdf [2 MB]
--. 2016 .pdf [6 MB]

------------------------------------------------------------------------


-------------------------------------------777-------------------------------------------

777. 10.2002 .pdf [976 KB]
4. 2.0. 11.2002 .pdf [448 KB]
-2. 2.0. 04.2002 .pdf [265 KB]
-, -, -. 2.0. 09.2001 .pdf [426 KB]
-16. 2.0. 11.2000 .pdf [370 KB]
. 2.0. 01.2002 .pdf [516 KB]
. 2.0. 05.2002 ..pdf [591 KB]
. 2.0. 10.2002 .pdf [459 KB]
-48, -8. 2.0. 06.2001 .pdf [313 KB]
485-4. 2.0. 09.2001 .pdf [267 KB]
(01). . 2.0. 03.2018 .pdf [359 KB]
(Mifare). . 2.1. 07.2019 .pdf [318 KB]
(). . 2.1. 07.2019 .pdf [211 KB]
(). . 2.1. 07.2019 .pdf [259 KB]
(). . 2.1. 07.2019 .pdf [387 KB]
4. 1.8. 2019 .pdf [1 MB]
777. . 7. 2017 .pdf [2 MB]
v.7.6.30.300. 2016 .pdf [8 MB]
777+. . 2.2. 2018 .pdf [1 MB]
777+. . 3.3. 2015 .pdf [3 MB]
777. . 1.03. 2005 .pdf [2 MB]
. . 4.01. 2015 .pdf [1 MB]
. . 2.00. 2011 .pdf [955 KB]
O. . 1.5. 2010 .pdf [942 KB]
O. . RS485, O. . Ethernet. . 2.8. 03.2019 .pdf [3 MB]
.2. . 1.0. 2014 .pdf [351 KB]
485. . 2.6. 05.2020 .pdf [787 KB]

------------------------------- 777. 1.02. 2005 -------------------------------

777. 1.02. 2005 .pdf [1 MB]
777. 1.02. 2005 .pdf [2 MB]

-----------------------------------------16-512-----------------------------------------

. I 16-512. 1.8. 2007 .pdf [1 MB]
. II 16-512. 1.4. 2006 .pdf [543 KB]

-------------------------------------------24-------------------------------------------

(02). . 1.0. 06.2019 .pdf [275 KB]
24. . 1.1. 05.2020 .pdf [2 MB]

----------------------------6 6-02, 6-04, 6-06----------------------------

. I 6 ( 6-04, 6-06). 6.05. 2007 .pdf[1 MB]
. II 6 ( 6-02, 6-04, 6-06). 6.01. 2006 .pdf[1 MB]

---------------------------------------6, 8, 16---------------------------------------

GSM. . 2.2. 09.2019 .pdf [749 KB]
-16. . 2.2. 03.2018 .pdf [335 KB]
-ETH-485. . 1.9. 07.2019 .pdf [490 KB]
-. . 1.4. 03.2018 .pdf [640 KB]
8. . 1.4. 10.2018 .pdf [2 MB]

-------------------------------------- 16-512--------------------------------------

1. . 1.8. 16-512. 02.2017 .pdf [3 MB]
2. . 1.10. 16-512. 02.2017 .pdf [1 MB]

------------------------------------- 6-------------------------------------

1. . 7.7. 6. 07.2019 .pdf [3 MB]
2. . 7.6. 6. 02.2017 .pdf [1 MB]

------------------------------------------------------------------------------------


---------------------------------------- 16----------------------------------------

16. 2015.pdf [825 KB]

---------------------------------------- 32----------------------------------------

-.doc [1 MB]
32 2.pdf [373 KB]
32. 2. 2015.pdf [975 KB]
32.doc [973 KB]

------------------------------------------------------------------------------------


-------------------------------------------95------------------------------------------

-95. 1. 2002 .pdf [3 MB]

------------------------------------ ------------------------------------


------------------------------------PHOTO EXPRESS SOLO------------------------------------

PHOTO EXPRESS SOLO. 19.02.2019.pdf [5 MB]
PHOTO EXPRESS SOLO. 30.10.2017.pdf [5 MB]
PHOTO EXPRESS SOLO. 06.09.2017.pdf [1 MB]
PHOTO EXPRESS SOLO. 20.05.2019.pdf [1 MB]

------------------------------------ 03, 06, 09------------------------------------

, 03, 06, 09. 1.2. 01.08.2017 .pdf [2 MB]

------------------------------------------------------------------------------------

. 15.07.2019.pdf [656 KB]

------------------------- 3-5-8-12 () ( IP )-------------------------

3-5-8-12 () ( IP ) 06.2014. 19.12.2012.pdf [1 MB]
3-5-8-12 () ( IP ) 09.2015. 11.08.2015.pdf [1 MB]
-3,-5,-8,-12. 08.08.2018.pdf [1 MB]

-----------------------------------------128----------------------------------------

-128 15.09.2005 .pdf [468 KB]
-128 .1.5.doc [2 MB]

----------------------------------16,-24() ()---------------------------------

-16 ( 3), -24 ( 3) 2008 ., 27.12.2007.pdf[456 KB]
-16 ( 3), -24 ( 3) 2006 ., 02.02.2007.pdf[563 KB]
-16, -24. 25.07.2005.pdf [336 KB]
-16, -24.doc [798 KB]
-16,-24() () 11.2016. 29.02.2016.pdf [1 MB]
-16,-24() (). 03.10.2018.pdf [1 MB]

--------------------------------------2,-4 ()-------------------------------------

-2, -4 01.10.2003 .pdf [192 KB]
-2, -4 01.11.2001 .pdf [235 KB]
-2, -4 ( IP ). 08.08.2018.pdf [1 MB]
-2, -4 01.08.2005 .pdf [315 KB]
-2, -4 01.08.2005 ., 07.09.2005.pdf [347 KB]
-2,-4 () 09.2015. 07.09.2015 .pdf [1 MB]
-2, -4 01.06.2007 . 24.01.2007.pdf [474 KB]
-2, -4 2008 . 30.05.2007.pdf [528 KB]
-2, -4 2008 . 23.01.2008.pdf [495 KB]
-2, -4 01.10.2003 .pdf [82 KB]

-------------------------------------3, -5------------------------------------

-3, -5, -8 01.09.2004 .pdf [160 KB]
-3, -5 01.06.2006 ., 01.07.2006 .pdf [288 KB]
-3, -5 01.09.2004 ., 07.09.2005 .pdf [325 KB]

----------------------------------3,-5,-8,-12-(48)---------------------------------

IP . 08.08.2018.pdf [489 KB]
-3,-5,-8,-12-(48) IP . 08.08.2018.pdf [1 MB]

------------------------------------3,-6,-9 ()-----------------------------------

, -3,-6,-9 (). . 1.1.pdf [2 MB]

-------------------------------------5 ------------------------------------

-5 . 17.07.2009 .pdf [179 KB]

------------------------------------------8-----------------------------------------

-8 01.06.2006 ., 01.07.2006 .pdf [256 KB]
-8 01.09.2004 ., 07.09.2005 .pdf [298 KB]

-----------------------------------------8----------------------------------------

-8. 14.07.2005 .pdf [426 KB]

-----------------------------------------------------------------------------------

-.doc [1 MB]

------------------------------------------------------------------------------------

. 03.03.2008 .pdf [1009 KB]
. 18.01.2007 .pdf [657 KB]

----------------------------------- -0149-1-2-----------------------------------

0149-1-2 ( 1).doc [394 KB]
0149-1-2 ( 2).doc [250 KB]
( 1) 11.2016. 26.01.2016.pdf [746 KB]
( 1). 01.02.2019.pdf [829 KB]
( 2) 11.2016. 09.06.2016.pdf [928 KB]
( 2). 01.02.2019.pdf [1 MB]
3 (-1-1) 2008 . 08.05.2008.pdf [196 KB]
0149-1-2 ( 1). 01.09.2005.pdf [258 KB]
0149-1-2 ( 2). 02.09.2005.pdf [487 KB]

---------------------------- ArsProg 3.0.3----------------------------

ArsProg 3.0.3. 10.01.2017.pdf [608 KB]

--------------------------------- 2.14---------------------------------

2.14. 17.07.2013.pdf [1 MB]

------------------------------------------100-----------------------------------------

-100 23.11.2007 .pdf [619 KB]

------------------------------------------------------------------------------------

. 30.05.2007 .pdf [423 KB]

------------------------------------- 2 102-32-------------------------------------

-2. 18.09.2013.pdf [104 KB]

-------------------------------------- 102-32--------------------------------------

.pdf [61 KB]

------------------------------------------G-----------------------------------------

-G. 23.11.2015.pdf [425 KB]

----------------------------------------G-mini---------------------------------------

-G-mini. 22.09.2016.pdf [250 KB]

------------------------------------------2-----------------------------------------

-2. 30.06.2017.pdf [243 KB]

-----------------------------1 110-1, -2 110-1----------------------------

-1, -2. 11.10.2013.pdf [117 KB]

------------------------------------- 1-------------------------------------

1. 04.04.2018.pdf [1019 KB]

------------------------------------- 2-------------------------------------

2. 04.04.2018.pdf [999 KB]

-------------------------------- 4 409-28--------------------------------

4. 04.04.2018.pdf [1 MB]
4. 18.06.2007.pdf [187 KB]

------------------------------------- 5-------------------------------------

5. 04.04.2018.pdf [1 MB]

------------------------------------- 409-28-------------------------------------

.doc [282 KB]

----------------------------------------- -----------------------------------------

. 08.06.2017.pdf [536 KB]

-------------------------------------10 2------------------------------------

-10 2. 04.04.2018.pdf [950 KB]

------------------------------------3 1, 2-----------------------------------

-3 1, 2. 04.04.2018.pdf [1 MB]

-------------------------------------3 409-28------------------------------------

-3. 22.01.2007.pdf [213 KB]

------------------------------------------2-----------------------------------------

-2. 30.06.2017.pdf [242 KB]

---------------------------------6 01059-20-2--------------------------------

, , -6.doc [128 KB]

------------------------------------------------------------------------------------

. 15.07.2019.pdf [624 KB]

------------------------------------------2-----------------------------------------

-2. 15.07.2019.pdf [592 KB]

----------------------------------1-1 051-1-3---------------------------------

-1-1.doc [140 KB]
-1-1. 17.05.2005.pdf [139 KB]

------------------------------------3, -5, -6, -8-----------------------------------

-3, -5, -6, -8. 03.12.2007 .pdf [355 KB]

-------------------------------------3,-5,-6,-8------------------------------------

-3,-5,-8. 10.04.2017.pdf [778 KB]

-----------------------------------------------------------------------------------


--------------------------------------------------------------------------------


-----------------------------------------02-3---------------------------------------

--02-3. . 6. 11.10.2017.pdf [2 MB]

-----------------------------------------32-1---------------------------------------

--32-1. . 1. 2019 .pdf [1 MB]

-------------------------------------------------------------------------------------

--05-1. 6. 22.10.2017 ..pdf [4 MB]
--19-1. 2. 17.10.2017 ..pdf [3 MB]
--20-1. 1. 21.10.2017 ..pdf [2 MB]

-----------------------------------------02-1---------------------------------------

--02-1. 7. 21.10.2017 ..pdf [2 MB]

-------------------------------------------020------------------------------------------

-020.pdf [729 KB]
-020.pdf [363 KB]
-020. 2. 12.12.2006 .pdf [2 MB]
-020. 8. 04.04.2017 .pdf [1 MB]

--------------------------------060 01059-100-4-------------------------------

Flash- V1.20.2714.pdf [111 KB]
-060.pdf [129 KB]
01059-100-4 -060.pdf [196 KB]
01059-100-4 -060. 2. 28.03.2003 ..pdf [952 KB]
01059-100-4 -060. 3. 20.10.2005 .pdf [966 KB]
01059-100-4 -060. 4. 13.11.2010 .pdf [720 KB]
01059-100-4 -060. 5. 11.09.2003 ..pdf [2 MB]
01059-100-4 -060. 6. 21.10.2005 ..pdf [3 MB]
01059-100-4 -060. 7. 13.11.2010 ..pdf [1 MB]
01059-100-4 -060. 2. 28.03.2003 ..pdf [454 KB]
01059-100-4 -060. 3. 13.11.2010 .pdf [288 KB]
-01. 1. 18.08.2005 .pdf [298 KB]
01059-100-4 -060. 4. 02.11.2005 .pdf [1004 KB]
01059-100-4 -060. 5. 13.11.2010 .pdf [797 KB]
-02. 2. 11.08.2003 .pdf [1 MB]
-02. 3. 09.10.2007 .pdf [830 KB]
, 01059-100-4 -060. 3. 28.03.2003 .pdf [1 MB]

---------------------------------------07-3(4)--------------------------------------

7. 1. 26.11.2003 ..pdf [2 MB]
-02-4 . 2. 11.10.2002 .pdf [313 KB]
-02-4 . 16.12.2017 .pdf [315 KB]
-03-4 (ver 2.00). 3. 08.04.2004 .pdf [451 KB]
-03-4 (ver 2.00). 5. 13.12.2012 .pdf [211 KB]
-01 (ver 2.15). 3. 30.03.2004 ..pdf [309 KB]
-01 (ver 2.15). 16.12.2017 ..pdf [242 KB]
-06 (ver 4.52). 4. 30.03.2004 .pdf [470 KB]
-06 (ver 4.52). 5. 13.11.2010 .pdf [407 KB]
-07 (ver 5.12). 3. 30.03.2004 .pdf [475 KB]
-07 (ver 5.13). 5. 13.12.2012 .pdf [269 KB]
-01. 16.12.2017 .pdf [120 KB]
01059-250-1 -07-3. 2. 11.10.2002 .pdf [2 MB]
01059-250-1 -07-3. 4. 13.11.2010 .pdf [951 KB]
01059-255-2 -07-4. 3. 17.08.2004 .pdf [1 MB]
RProgLite-07 (ver 3.10). 2.pdf [171 KB]
-01 -. 5. 21.09.2011 ..pdf [218 KB]
-01 -.pdf [338 KB]
-01 (ver 1.00). 2. 11.10.2002 ..pdf [727 KB]
-01 (ver 1.00). 3. 13.11.2010 ..pdf [600 KB]
-01 (ver 7.14) . 5. 26.08.2005 .pdf [457 KB]
-01 . 10. 17.07.2017 .pdf [255 KB]
-01- (ver 5.30) .pdf [211 KB]
-01- (ver 5.30EK) .pdf [185 KB]
-03-04-7. 3. 18.03.2004 .pdf [406 KB]
-03-04-7. 4. 13.11.2010 .pdf [334 KB]
-02 (ver 1.02). 2. 11.10.2002 ..pdf [327 KB]
-02 (ver 1.02). 3. 28.03.2008 ..pdf [284 KB]

---------------------------08 3.5.1 --------------------------

-07 .2 22.05.2008 .pdf [353 KB]
.2.2 08.05.2009 .pdf [701 KB]
.1 26.06.2006 .pdf [455 KB]
.7 22.05.2008 .pdf [392 KB]
-08 .1.1 26.03.2009 .pdf [590 KB]
-060 -08 3.5.0.396 .2 22.05.2008 .pdf [279 KB]
.13 AV- 3.5.0.5240 22.05.2008 .pdf [2 MB]
.2 GeuteBruck 3.5.0.123 22.05.2008 .pdf [420 KB]
.2 3.5.0.413 22.05.2008 .pdf [275 KB]
.2 3.5.0.1333 22.05.2008 .pdf [388 KB]
.2 3.5.0.1037 22.05.2008 .pdf [353 KB]
.2 3.5.1.201 22.05.2008 .pdf [362 KB]
.27 3.5.0.1211 22.05.2008 .pdf [2 MB]
.3 3.5.1.755 28.05.2008 .pdf [689 KB]
.3 . -08 3.5.0.25 22.05.2008 .pdf [486 KB]
.3 3.5.1.4606 22.05.2008 .pdf [886 KB]
.4 3.5.0.3732 22.05.2008 .pdf [364 KB]
.4 3.5.0.313 22.05.2008 .pdf [464 KB]
.5 (. ) 22.05.2008 .pdf [2 MB]
.5 3.5.0.904 22.05.2008 .pdf [338 KB]
.7 OPC 3.5.0.390 22.05.2008 .pdf [482 KB]
.7 3.5.1.585 22.05.2008 .pdf [608 KB]
. WinXP SP2 .4 22.05.2008 .pdf [553 KB]
.2 3.5.0.436 22.05.2008 .pdf [414 KB]
.2 3.5.0.761 22.05.2008 .pdf [372 KB]
.2 3.5.0.677 22.05.2008 .pdf [539 KB]
.2 22.05.2008 .pdf [509 KB]
.2 3.5.0.852 22.05.2008 .pdf [395 KB]
.2 3.5.0.198 22.05.2008 .pdf [320 KB]
.3 3.5.0.776 30.04.2008 .pdf [604 KB]
.6 AV- 3.5.0.5240 22.05.2008 .pdf [868 KB]
.7 3.5.1.4606 22.05.2008 .pdf [629 KB]
.1 BioSense Admin 1.0.0 05.04.2007 .pdf [1 MB]
.1 3.5.0.5 22.05.2008 .pdf [449 KB]
.3.4 26.03.2009 .pdf [1 MB]
.1 04.05.2008 .pdf [388 KB]
. . . .9 -08 3.5.1 22.05.2008 .pdf [733 KB]
.19 -08 3.5.1 22.05.2008 .pdf [563 KB]
. 17.7 .1.1 17.04.2008 .pdf [648 KB]
. 18.1 .2.1 17.04.2008 .pdf [1 MB]

--------------------------------08 01059-1000-3-------------------------------


-------------------------------NM7010A -------------------------------

NM7010A.pdf [211 KB]

----------------------------------02 ---------------------------------

-02 2. 23.09.2004 .pdf [820 KB]

------------------------------01 -----------------------------

-01 1. 17.03.2004 ..pdf [307 KB]

-----------------------------03 ----------------------------

-03 3. 18.03.2004 ..pdf [411 KB]
-03 5. 24.09.2007 ..pdf [373 KB]

--------------------------------------- -08---------------------------------------

Flash- -08. V1.20.2714.pdf [111 KB]
Flash- -08. V2.00.3793.pdf [112 KB]
Flash- -08. V2.00.4244.pdf [97 KB]
Flash- -08. V2.10.4774.pdf [134 KB]
Flash- -08. V2.20.5439.pdf [136 KB]
Flash- -08. V2.20.5440. 27.05.2008 ..pdf [106 KB]
-08.pdf [212 KB]

-----------------------01 RS-232RS-422----------------------

-01 (ver 1.00) 1. 17.03.2004 ..pdf [347 KB]
-01 (ver 2.00) 2. 20.06.2006 .pdf [381 KB]

----------------------------01 ---------------------------

-01 1. 22.03.2004 ..pdf [732 KB]
-01 2. 28.03.2008 ..pdf [476 KB]

------------------------------01 -----------------------------

-01 2. 02.06.2004 ..pdf [780 KB]
-01 3. 22.01.2008 .pdf [681 KB]

-----------------------------02 ----------------------------

-02 3. 17.03.2004 ..pdf [701 KB]
-02 6. 24.09.2007 ..pdf [579 KB]

------------------------------------------08-----------------------------------------

-08.pdf [260 KB]
-08. 3. 14.04.2004 ..pdf [1 MB]
-08. 10. 22.08.2007 .pdf [2 MB]
-08. 5. 30.08.2004 .pdf [3 MB]
-08. 2. 14.04.2004 ..pdf [446 KB]
-08. 13. 07.02.2008 .pdf [1 MB]
-08. 5. 30.08.2004 .pdf [1 MB]
-08. 9. 11.07.2006 .pdf [1 MB]
. 2. 23.05.2002 ..pdf [1 MB]
. 6. 12.09.2007 .pdf [748 KB]

-----------------------01 ----------------------

-01 4. 21.12.2004 .pdf [683 KB]

-----------------------01 ----------------------

-01 3. 16.04.2004 ..pdf [726 KB]
-01 7. 28.03.2008 .pdf [587 KB]

--------------------01 -------------------

-01 (ver 2.00). 4. 08.04.2004 .pdf [314 KB]
-01 (ver 2.00). 5. 24.09.2007 .pdf [353 KB]

-------------------------01 ------------------------

-01 2. 01.04.2003 ..pdf [417 KB]

--------------------01 -------------------

-01 2. 03.08.2004 ..pdf [576 KB]
-01 4. 28.03.2008 ..pdf [532 KB]

-----------01 ----------

-01.pdf [374 KB]

----------------------01 ---------------------

-01 10. 07.02.2008 .pdf [1 MB]
-01 7. 11.08.2003 .pdf [1 MB]

----------------------02 ---------------------

-02 4. 11.08.2003 ..pdf [1 MB]

---------------------03-4 --------------------

-03-4 3. 18.03.2004 .pdf [426 KB]

---------------------03-8 --------------------

-03-8 2. 18.03.2004 .pdf [432 KB]
-03-8 4. 24.01.2008 ..pdf [419 KB]

----------------------04 ---------------------

-04 1. 18.03.2004 .pdf [386 KB]
-04 3. 28.03.2008 .pdf [351 KB]

-----------------------------02 ----------------------------

-02 (ver 1.00). 3. 17.03.2004 .pdf [286 KB]
-02 (ver 1.00). 4. 28.03.2008 .pdf [320 KB]

----------------------------02 ---------------------------

-02 (ver 1.00).pdf [291 KB]

-----------------------------02 ----------------------------

-02 (ver 2.00). 3. 23.07.2004 .pdf [366 KB]

--------------------------------- ---------------------------------


----------------------------------------------------------------------------------

-02, -02. -03.pdf [196 KB]
-02.pdf [206 KB]
-01, -02, -04, -06, -10.pdf [218 KB]
-04.pdf [145 KB]
-01, -03.pdf [196 KB]
-01, -01.pdf [202 KB]
-01.pdf [121 KB]
+.pdf [114 KB]
-01.pdf [113 KB]
-.pdf [113 KB]
-01.pdf [112 KB]
-.pdf [115 KB]
TTR.pdf [141 KB]
-01.pdf [125 KB]
-01.pdf [119 KB]
-02.pdf [167 KB]
-03.pdf [149 KB]
-04.pdf [115 KB]
-01.pdf [113 KB]
-02.pdf [112 KB]
-03.pdf [114 KB]
-01.pdf [115 KB]
-01.pdf [120 KB]
-02.pdf [173 KB]
-01.pdf [158 KB]
-01.pdf [156 KB]
-01.pdf [128 KB]
-01.pdf [160 KB]
. 1.0. 05.2008 .pdf [511 KB]
. 2006 .pdf [602 KB]
-01 . .pdf [688 KB]
-01. 07.08.2006 .pdf [253 KB]
+. 07.08.2006 .pdf [709 KB]
+. 1.0. 06.2008 .pdf [535 KB]
-01. 2002 .pdf [633 KB]
-02. 1.0. 02.2008 .pdf [386 KB]
-. 2005 .pdf [682 KB]
-10. 1.0. 06.2008 .pdf [360 KB]
-01. 07.08.2006 .pdf [326 KB]
-01. 2001 .pdf [1 MB]
-01. 2005 .pdf [543 KB]
-01. 1.0. 06.2008 .pdf [409 KB]
-. 07.08.2006 .pdf [613 KB]
-. 2005 .pdf [340 KB]
-. 1.0. 06.2008 .pdf [640 KB]
-02. 07.08.2006 .pdf [258 KB]

--------------------------------------- 8000---------------------------------------


-------------------------------------- C2-ALKO--------------------------------------

C2-ALKO.pdf [405 KB]
C2-ALKO.pdf [2 MB]

---------------------------------- iButton-Wiegand----------------------------------

iButton-Wiegand.pdf [458 KB]

---------------------------------- RS-232-Wiegand----------------------------------

RS-232-Wiegand.pdf [471 KB]

--------------------------------------- T-61---------------------------------------

T-61.pdf [198 KB]

--------------------------------------- T-62---------------------------------------

T-62.pdf [428 KB]

--------------------------------------- ---------------------------------------

.pdf [415 KB]

---------------------------------------- 2----------------------------------------

2-8000-8000.pdf [144 KB]
2.pdf [457 KB]
2-.pdf [410 KB]
2.pdf [1 MB]
2-2.pdf [1 MB]

------------------------------------- 2-32000-------------------------------------

2-32000.pdf [327 KB]
2-32000.pdf [2 MB]

--------------------------------------- -02---------------------------------------

-02.pdf [474 KB]

--------------------------------------- -11---------------------------------------

-11. . 1.0.pdf [1 MB]

--------------------------------------- ---------------------------------------

.pdf [410 KB]

----------------------------------- (-)-----------------------------------


-----------------------------------------027----------------------------------------

-027.pdf [647 KB]

---------------------------------- -027. 2005 ----------------------------------

-027 1 1.tif [38 KB]
-027 2 2.tif [24 KB]
-027 3.tif [27 KB]
-027 4 4.tif [29 KB]
-027 5 5.tif [27 KB]
-027 6 6.tif [42 KB]
-027 7.tif [38 KB]
-027 7.tif [36 KB]
-027 8 8.tif [44 KB]
-027 8 8 9 8 8.tif [46 KB]
-027. 2005 .doc [224 KB]

------------------------------027, -027 . 1-----------------------------

-027, -027 . 1. 20.06.2020.pdf [1 MB]
-027. 2009 .pdf [669 KB]

-----------------------------------------035----------------------------------------

-035.doc [69 KB]
-035.pdf [868 KB]

---------------------------------- -035. 2002 ----------------------------------

-035. 2002 .dwg [340 KB]
-035. 2002 .doc [182 KB]

---------------------------------- -035. 2005 ----------------------------------

-035 10 10.tif [22 KB]
-035 11 11.tif [45 KB]
-035 11 11 11 11 11.tif [49 KB]
-035 1 1.tif [84 KB]
-035 1 1.tif [54 KB]
-035 1.tif [33 KB]
-035 2 .tif [36 KB]
-035 2.tif [34 KB]
-035 2 2.tif [121 KB]
-035 2 2.tif [45 KB]
-035 2 .tif [48 KB]
-035 3.tif [80 KB]
-035 4.tif [13 KB]
-035 5 6.tif [36 KB]
-035 7 7.tif [29 KB]
-035 8 8.tif [68 KB]
-035 9.tif [43 KB]
-035. 2005 .doc [281 KB]

------------------------------035, -035 . 1-----------------------------

-035, -035 . 1. 20.06.2020.pdf [6 MB]
-035. 2010 .pdf [2 MB]

-----------------------------035, -035 . 1----------------------------

-035, -035 . 1. 20.06.2020.pdf [5 MB]

-----------------------------------------038----------------------------------------

-038.doc [184 KB]
-038.pdf [785 KB]

---------------------------------- -038. 2005 ----------------------------------

-038 1 2.tif [37 KB]
-038 3 3 3.tif [36 KB]
-038 4.tif [45 KB]
-038 5.tif [44 KB]
-038 6.tif [46 KB]
-038 7.tif [73 KB]
-038 8 8.tif [43 KB]
-038 8 8 8 8 8.tif [49 KB]
-038. 2005 .doc [258 KB]

------------------------------038, -038 . 1-----------------------------

-038, -038 . 1. 20.06.2020.pdf [2 MB]
-038. 2009 .pdf [783 KB]

-----------------------------------------048----------------------------------------

-048.pdf [780 KB]

---------------------------------- -048. 2005 ----------------------------------

-048 1.tif [59 KB]
-048 1.tif [61 KB]
-048 2 3.tif [36 KB]
-048 4 4.tif [27 KB]
-048 5.tif [41 KB]
-048 6.tif [42 KB]
-048 7 7.tif [44 KB]
-048 7 7 7 7 7.tif [46 KB]
-048 8 8 8.tif [29 KB]
-048. 2005 .doc [286 KB]

------------------------------048, -048 . 1-----------------------------

-048, -048 . 1. 20.06.2020.pdf [1 MB]
-048. 2009 .pdf [682 KB]

-----------------------------------------050----------------------------------------

-050.pdf [718 KB]

---------------------------------- -050. 2005 ----------------------------------

-050 1 1.tif [45 KB]
-050 1 1 1 1 1.tif [48 KB]
-050 2 2.tif [14 KB]
-050 3.tif [19 KB]
-050 4.tif [18 KB]
-050 5.tif [21 KB]
-050 6.tif [16 KB]
-050 6 6.tif [47 KB]
-050 7.tif [15 KB]
-050 8.tif [16 KB]
-050. 2005 .doc [320 KB]

------------------------------050, -050 . 1-----------------------------

-050, -050 . 1. 20.06.2020.pdf [34 MB]
-050. 2009 .pdf [918 KB]

------------------------------070, -070 . 1-----------------------------

-070, -070 . 1. 20.06.2020.pdf [9 MB]
-070. 2010 .pdf [2 MB]

------------------------------------------------------------------------


------------------------------------------------------------------------------------

.pdf [457 KB]
PERCo. 12.01.2005 .pdf [390 KB]
RC-103.pdf [2 MB]
RD-101. 19.01.2005 .pdf [302 KB]
RD-1030.pdf [704 KB]
RD-1100, RD-1040.pdf [689 KB]
RD-41.doc [796 KB]
RD-60.doc [1 MB]
RD-70.doc [637 KB]
-01 RS-232-RS-485. 29.09.2004 .pdf [320 KB]
-03 RS-232-2-wire.doc [973 KB]
-07 WIEGAND-26-2-WIRE.doc [155 KB]
-201, -202.pdf [1 MB]
-304. 23.03.2005 .pdf [813 KB]
-502.pdf [1 MB]
-601, -602. 18.10.2004 .pdf [1 MB]
-01-3.pdf [492 KB]
-03-3.pdf [1 MB]
-232. 07.02.2005 .pdf [630 KB]
. 2.0.0.2.doc [588 KB]
. 3.1.1.2.doc [269 KB]
. 1.0.x.x.doc [305 KB]
. 1.0.2.1.doc [399 KB]
. 1.0.doc [1 MB]
. 2.1.doc [758 KB]
RC-102.pdf [1 MB]
RD-1100 USB, RD-1040 USB, RD-1030 USB.pdf [460 KB]
. 3.2.2.5.doc [10 MB]
. 1.0.x.x.doc [309 KB]
. 1.0.x.x.doc [1 MB]
+. 1.8.x.x.doc [354 KB]

-------------------------, -20 01059-42-126-1------------------------

-06-8. 03.03.2005 .pdf [846 KB]
-07-4. 12.01.2005 .pdf [291 KB]
-07-8. 08.12.2004 .pdf [625 KB]
-08-220. 30.12.2004 .pdf [420 KB]
-08-220.doc [587 KB]
-08-24. 30.12.2004 .pdf [425 KB]
-08. 15.10.2004 .pdf [327 KB]
-09. 24.01.2005 .pdf [337 KB]
-20 .pdf [952 KB]
.doc [322 KB]
-50.pdf [876 KB]
-. 27.01.2005 .pdf [479 KB]
-01.doc [493 KB]
-. 2.3.0.2.doc [1 MB]
-20.doc [1 MB]
-20. 2.0.0.1.doc [582 KB]
-06-2.pdf [1 MB]
-01.pdf [1 MB]
-01 .pdf [70 KB]
-01. 2.pdf [315 KB]

--------------------------- -20---------------------------

-20. .doc [396 KB]
-20.doc [921 KB]

----------------------------------------іPRO----------------------------------------

-PRO.pdf [681 KB]
-PRO. 20.06.2020.pdf [2 MB]
-PRO. . 1.pdf [1 MB]

-----------------------------------------2000----------------------------------------

RD-.doc [505 KB]
-2000-6-12.doc [526 KB]
-2000-6-220.doc [1 MB]
-2000-6-12. . 3.pdf [788 KB]
-2000-6-220. . 3.pdf [804 KB]

------------------------1100, -1040, -1030-----------------------

-1100, -1040, -1030.pdf [904 KB]

----------------------------------------------------------------------------


---------------------------------- 019-1-17----------------------------------

. 2002 .doc [531 KB]

---------------------------------- 01059-20-1----------------------------------

.doc [53 KB]

-----------------------------------2 019-1-15----------------------------------

-2. V2. 2002 .pdf [1 MB]
-2. V2. 20.06.2020.pdf [1 MB]

----------------------------------- 019-1-16-----------------------------------

. 2003 .doc [878 KB]

-------------------------------------------------------------------------


-----------------------------------------------------------------------------------

-. 2005 .pdf [1 MB]

-------------------------------------- 102-12--------------------------------------

.pdf [116 KB]

----------------- 2-4- . 02, . 04, ( 2, 4)-----------------

2-4- . 02, -. 04, ( 2, 4). 2009 .pdf [363 KB]
, 2-4- . 02, -. 04, ( 2, 4). 2017 .pdf [622 KB]

------------------------------- 2-4- 019-4-1-------------------------------

2-4-. 2005 .pdf [285 KB]

----------------- 20-, 20- . 01, 20- . 02-----------------

20- . 01. 2007 .pdf [602 KB]
20- . 02. 2007 .pdf [739 KB]
20-, 20- . 01, 20- . 02. 2010 .pdf [5 MB]
20-. 2003 .pdf [944 KB]
20-. 2017 .pdf [369 KB]

---------------------------------1 019-1-13--------------------------------

-1 ( 2-4- . 01). 2017 .pdf [302 KB]
-1. 2005 .pdf [372 KB]
-1. 2010 .pdf [351 KB]

--------------------------------------- 1----------------------------------------

, 1-. 2009 .pdf [1 MB]

-------------------------------------- 2-4---------------------------------------

2-4- . 02. 2005 .pdf [166 KB]
2-4- . 02. 2009 .pdf [142 KB]
2-4- . 02. 2017 .pdf [319 KB]
2-4- . 04. 2005 .pdf [170 KB]
2-4- . 04. 2009 .pdf [211 KB]
2-4- . 04. 2017 .pdf [307 KB]
2-4-. 2017 .pdf [356 KB]
2-4-. 2018 .pdf [434 KB]

--------------------------------------- 24----------------------------------------

24- (. 8 ). 2011 .pdf [408 KB]
24-. 2010 .pdf [626 KB]
24-. 2017 .pdf [395 KB]

-------------------------------------------------------------------------------------

, -. 2010 .pdf [683 KB]
, -. 2017 .pdf [523 KB]

-------------------------------------------2-------------------------------------------

2.pdf [242 KB]

--------------------------------------------------------------------------------


-------------------------------------- 535--------------------------------------

, . 2009 .pdf [387 KB]
, . 2019 .pdf [563 KB]

-------------------------------------- 535-------------------------------------

, -. 2009 .pdf [517 KB]
, -. 2019 .pdf [825 KB]

-------------------------------------- 101--------------------------------------

, . 2009 .pdf [408 KB]
, . 2019 .pdf [817 KB]

-------------------------------------- 101-------------------------------------

-. 2019 .pdf [913 KB]
, -. 2009 .pdf [472 KB]

-------------------------------------------------------------------------------------

, -. 21.06.2020.pdf [846 KB]

--------------------------------------------------------------------------------------

, . 2010 .pdf [590 KB]

--------------------------------------------------------------------------------------

RS485 . . 2.1. 2017 .pdf [265 KB]
, . 2010 .pdf [497 KB]
, . 2014 .pdf [1 MB]
, . 2017 .pdf [1 MB]

--------------------------------------------------------------------------------------

, . 2009 .pdf [333 KB]

--------------------------------------------------------------------------------------

, . 2013 .pdf [586 KB]

--------------------------------------------------------------------------------------

, .pdf [268 KB]

----------------------------------16 01149-16-1---------------------------------

RS485. -16. 2012 .pdf [385 KB]
-16. 2008 .pdf [651 KB]
, -16. 2014 .pdf [801 KB]
, -16. 2019 .pdf [1 MB]

----------------------------------1 0149-1-1---------------------------------

RS485 -1. 2010 .pdf [251 KB]
-1. 2005 .doc [360 KB]
, -1. 2016 .pdf [609 KB]

----------------------------------4 01149-4-1---------------------------------

RS485. . 1.03. -4. 2015 .pdf [319 KB]
RS485. -4. 2012 .pdf [315 KB]
-4. 2006 .doc [381 KB]
, -4. 2015 .pdf [703 KB]

----------------------------------- 0149-1-1----------------------------------

RS485 - --. 2010 .pdf [266 KB]
RS485 -. 2009 .pdf [236 KB]
RS485. . 1.04. -. 2017 .pdf [254 KB]
, - --. 2010 .pdf [880 KB]
, -. 2015 .pdf [1 MB]

---------------------------------------------------------------------------------

, -. 2014 .pdf [715 KB]

--------------------------------------------------------------------------------------


-------------------75 209-14-1, --150 209-14-2-----------------

--75, --150. 1998 .doc [983 KB]
--75, --150. 2000 .pdf [452 KB]

-------------------------------------11 209-22------------------------------------

-11. 2002 .pdf [962 KB]
-11. 2006 .pdf [837 KB]
-11. 2014 .pdf [13 MB]

------------------------------------1112 209-23-----------------------------------

-1112. 2006 .pdf [350 KB]
-1112. 4. 2014 .pdf [2 MB]
-1112. 6. 2014 .pdf [3 MB]

------------------------------------1113 209-29-----------------------------------

-1113. 2006 .pdf [282 KB]
-1113. 1.4. 2011 .pdf [1 MB]
-1113. 1.5. 2011 .pdf [905 KB]

-----------------------------1115(-100), -1115(-100)----------------------------

-1115(-100), -1115(-100). 2010 .pdf [3 MB]
-1115, -1115. 2007 .pdf [469 KB]
-1115. 2006 .pdf [439 KB]

------------------------------------1117 209-33-----------------------------------

-1117. 2006 .pdf [428 KB]
-1117. 3. 2011 .pdf [4 MB]
-1117. 4. 2011 .pdf [3 MB]

-----------------------5-75 209-11-1, -5-125 209-11-2----------------------

-5-75, -5-125. 1998 .pdf [211 KB]
-5. 2011 .pdf [878 KB]

-------------------------7-2 209-16-1, -7-6 209-16-2------------------------

-7-2, -7-6. 1999 .pdf [784 KB]
-7. 2006 .pdf [366 KB]
-7. 2009 .pdf [1 MB]
-7. 1.9. 2009 .pdf [1 MB]

--------------------------------------8 209-17-------------------------------------

-8. 2002 .pdf [707 KB]
-8. 2006 .pdf [329 KB]
-8. 2014 .pdf [2 MB]

--------------------------------------9 209-18-------------------------------------

-9. 2002 .pdf [378 KB]
-9. 4. 2011 .pdf [1 MB]
-9. 6. 2011 .pdf [1 MB]

-------------------------------------------------------------------------------


-----------------------------------------GSM------------------------------------------

GSM-. 21.06.2020.pdf [484 KB]

-----------------------------------------GSM------------------------------------------

GSM-. 21.06.2020.pdf [476 KB]

-------------------------------------------433------------------------------------------

-433. 21.06.2020.pdf [495 KB]

-------------------------------------------868------------------------------------------

-868. 21.06.2020.pdf [393 KB]

------------------------------------------433-----------------------------------------

-433. 21.06.2020.pdf [221 KB]

------------------------------------------868-----------------------------------------

-868. 21.06.2020.pdf [219 KB]

------------------------------------------433-----------------------------------------

-433. 21.06.2020.pdf [254 KB]

------------------------------------------868-----------------------------------------

-868. 21.06.2020.pdf [260 KB]

----------------------------------------------------------------------------------

. 21.06.2020.pdf [264 KB]
. . 21.06.2020.pdf [1 MB]
. .425144.101. 21.06.2020.pdf [3 MB]
. .425144.104. 21.06.2020.pdf [2 MB]
. . 21.06.2020.pdf [280 KB]
. 21.06.2020.pdf [354 KB]

------------------------------------------40-----------------------------------------

-40-01. 21.06.2020.pdf [177 KB]
-40. .425144.099. 21.06.2020.pdf [96 KB]
-40. .425144.100. 21.06.2020.pdf [53 KB]
-40-01. 21.06.2020.pdf [1 MB]
-40. 21.06.2020.pdf [1 MB]

--------------------------------------------------------------------------------------

. 21.06.2020.pdf [64 KB]

-------------------------------------------------------------------------------------

-. 21.06.2020.pdf [386 KB]

-------------------------------------------------------------------------------------

-. 21.06.2020.pdf [231 KB]

-------------------------------------------------------------------------------------

-. 21.06.2020.pdf [383 KB]

-----------------------------------------12-0,2----------------------------------------

-12-0,2. 21.06.2020.pdf [698 KB]
-12-0,2.pdf [262 KB]

----------------------------------------12-0,2-1---------------------------------------

-12-0,2-1. 21.06.2020.pdf [535 KB]

----------------------------------------------------------------------------------------

. 21.06.2020.pdf [292 KB]

-------------------------------------------8------------------------------------------

-8. 21.06.2020.pdf [887 KB]

--------------------------------------------------------------------------------------

. 21.06.2020.pdf [659 KB]

-------------------------------------------1-------------------------------------------

1. 21.06.2020.pdf [601 KB]

-------------------------------------------2-------------------------------------------

2. 21.06.2020.pdf [333 KB]

--------------------------------------------------------------------------------------

. 21.06.2020.pdf [324 KB]

-----------------------------------------01----------------------------------------

-01. 21.06.2020.pdf [177 KB]
-01. 21.06.2020.pdf [2 MB]

-----------------------------------------01----------------------------------------

-01. 21.06.2020.pdf [2 MB]

------------------------------------------10-----------------------------------------

-10. 21.06.2020.pdf [1 MB]

------------------------------------------200-----------------------------------------

-200. 21.06.2020.pdf [184 KB]
-200. 21.06.2020.pdf [1 MB]

------------------------------------------200-----------------------------------------

-200. 21.06.2020.pdf [183 KB]

------------------------------------------200-----------------------------------------

-200. 21.06.2020.pdf [164 KB]

--------------------------------------------1-------------------------------------------

-1. 2005 .pdf [221 KB]

------------------------------------- --6-------------------------------------

--6. 21.06.2020.pdf [322 KB]

-------------------------------------------1------------------------------------------

-1. 21.06.2020.pdf [45 KB]

------------------------------------------1-----------------------------------------

-1. 21.06.2020.pdf [464 KB]

-------------------------------------------2------------------------------------------

-2. 21.06.2020.pdf [49 KB]

------------------------------------------2-----------------------------------------

-2. 21.06.2020.pdf [47 KB]

-------------------------------------------3------------------------------------------

-3. 21.06.2020.pdf [51 KB]

------------------------------------------3-----------------------------------------

-3. 21.06.2020.pdf [46 KB]

-------------------------------------------3------------------------------------------

-3. 21.06.2020.pdf [215 KB]

-------------------------------------------4------------------------------------------

-4. 21.06.2020.pdf [611 KB]

------------------------------------------4-----------------------------------------

-4. 21.06.2020.pdf [452 KB]

-------------------------------------------5------------------------------------------

-5. 21.06.2020.pdf [575 KB]

-------------------------------------------6------------------------------------------

-6. 21.06.2020.pdf [1 MB]

-------------------------------------------7------------------------------------------

-7. 21.06.2020.pdf [148 KB]

---------------------------------- ----------------------------------

. 21.06.2020.pdf [493 KB]

----------------------------------- 1-----------------------------------

1. 21.06.2020.pdf [440 KB]

----------------------------------- 2-----------------------------------

2. 21.06.2020.pdf [440 KB]

------------------------ ------------------------

. 21.06.2020.pdf [493 KB]

---------------------------------- ----------------------------------

. 21.06.2020.pdf [540 KB]

--------------------------------------------------------------------------------------

. 21.06.2020.pdf [156 KB]

---------------------------------------------------------------------------------------

-. 21.06.2020.pdf [199 KB]

-------------------------------------------1------------------------------------------

-1. 21.06.2020.pdf [77 KB]

------------------------------------------1-02-----------------------------------------

-1-02. 21.06.2020.pdf [48 KB]

----------------------------------------------------------------------------------------

. 21.06.2020.pdf [705 KB]

-------------------------------------------02------------------------------------------

-02. 21.06.2020.pdf [597 KB]

----------------------------------------------------------------------------------------

. 21.06.2020.pdf [602 KB]

-------------------------------------------01------------------------------------------

-01. 21.06.2020.pdf [278 KB]

------------------------------------------RS485-----------------------------------------

-RS485. 21.06.2020.pdf [432 KB]

-------------------------------------------------------------------------------------

-. 21.06.2020.pdf [421 KB]

-------------------------------------------5-----------------------------------------

--5. 21.06.2020.pdf [482 KB]

-------------------------------------------------------------------------------------

-. 21.06.2020.pdf [200 KB]

---------------------------------------------------------------------------------------

-. 2008 .pdf [474 KB]
-. 21.06.2020.pdf [216 KB]

------------------------------------------------------------------------------------

-200. 21.06.2020.pdf [148 KB]
-600. 21.06.2020.pdf [149 KB]
-200, -200-01. 21.06.2020.pdf [1 MB]
-200-02. 21.06.2020.pdf [1 MB]
-200-01. 21.06.2020.pdf [1 MB]
-600, -600-01. 21.06.2020.pdf [1 MB]
-600-02. 21.06.2020.pdf [1 MB]
-200-01. 21.06.2020.pdf [436 KB]
-200-02. 21.06.2020.pdf [436 KB]
-200-01. 21.06.2020.pdf [297 KB]
-600-01. 21.06.2020.pdf [546 KB]
-600-02. 21.06.2020.pdf [545 KB]

-------------------------------------------32------------------------------------------

-32. 21.06.2020.pdf [1 MB]

------------------------------300, -200, -100, -50, -50-----------------------------

-300, -200, -100, -50, -50. 21.06.2020.pdf [531 KB]

-------------------------------------------5------------------------------------------

-5. 21.06.2020.pdf [710 KB]

------------------------------------------5-3-----------------------------------------

-5-3. 21.06.2020.pdf [515 KB]

-------------------------------300, -200, -100, -50------------------------------

-300, -200, -100, -50. 21.06.2020.pdf [613 KB]

-----------------------------------------1-868-----------------------------------------

1-868. 21.06.2020.pdf [515 KB]

-------------------------------------------2-------------------------------------------

2. 21.06.2020.pdf [621 KB]

-------------------------------------------------------------------------------------

-. 21.06.2020.pdf [365 KB]

-------------------------------------------------------------------------------------

-. 21.06.2020.pdf [310 KB]

-------------------------------------------------------------------------------------

-. 21.06.2020.pdf [637 KB]

-------------------------------------------2------------------------------------------

-2. 21.06.2020.pdf [647 KB]

------------------------------------------------------------------------------------

-. 21.06.2020.pdf [353 KB]
. 21.06.2020.pdf [312 KB]
. 21.06.2020.pdf [2 MB]
. 21.06.2020.pdf [364 KB]

------------------------------------------------------------------------------------

. 21.06.2020.pdf [1 MB]

-----------------------------------------200----------------------------------------

-200-01. 21.06.2020.pdf [167 KB]
-200. .425142.099. 21.06.2020.pdf [99 KB]
-200. .425142.100. 21.06.2020.pdf [103 KB]
-200-01. 21.06.2020.pdf [155 KB]
-200-01. 21.06.2020.pdf [3 MB]
-200. 21.06.2020.pdf [945 KB]
-200.pdf [1 MB]
-200-01. 21.06.2020.pdf [2 MB]
-200-01.pdf [2 MB]

-----------------------------------------600----------------------------------------

-600-01. 21.06.2020.pdf [159 KB]
-600. .425142.054 . 21.06.2020.pdf [129 KB]
-600. .425142.099-01 . 21.06.2020.pdf [97 KB]
-600. .425142.100-01. 21.06.2020.pdf [100 KB]
-600-01. 21.06.2020.pdf [1 MB]
-600. 21.06.2020.pdf [2 MB]
-600.pdf [974 KB]

----------------------------------------- -----------------------------------------


-----------------------------------------STA-414-----------------------------------------

STA-414.pdf [462 KB]
STA-414.pdf [153 KB]

----------------------------------------STA-453 M2----------------------------------------

STA-453 M2.pdf [1 MB]

-------------------------------------STA-453, STA-457-------------------------------------

STA-453.pdf [614 KB]
STA-457.pdf [548 KB]
STA-453, STA-457.pdf [359 KB]

-----------------------------------------STA-454-----------------------------------------

STA-454.pdf [572 KB]
STA-454.pdf [412 KB]

----------------------------------------STA-454 M2----------------------------------------

STA-454 M2.pdf [966 KB]

----------------------------------------STA-456 M2----------------------------------------

STA-456 M2.pdf [380 KB]
STA-456 M2.pdf [1 MB]

----------------------------------------STA-457 M2----------------------------------------

STA-457 M2.pdf [977 KB]

-----------------------------------------STA-473-----------------------------------------

STA-473.pdf [590 KB]

----------------------------------------STA-473 M2----------------------------------------

STA-473 M2.pdf [990 KB]

------------------------------------------------------------------------------------


-------------------------------------------1------------------------------------------

-1.doc [12 MB]

-----------------------------------------------------------------------------------

-.doc [1 MB]

------------------------------------------7-----------------------------------------


-----------------------------------------------------------------------------------

-.pdf [132 KB]
-.pdf [176 KB]

-----------------------------------------1----------------------------------------

-1.pdf [193 KB]
, , - 1, - 2 2007 .pdf [448 KB]

--------------------------------------------------------------------------------------

.pdf [170 KB]

-------------------------------------------------------------------------------------

-.pdf [217 KB]
- 2003 .pdf [293 KB]
- 2006 .pdf [577 KB]

----------------------------------------------------------------------------------

. 21.06.2020.pdf [1 MB]

--------------------------------------------------------------------------------------

2008 .pdf [423 KB]

--------------------------------------------------------------------------------------

.pdf [160 KB]
.pdf [182 KB]

------------------------------------------------------------------------------------

2009 .pdf [829 KB]
. 21.06.2020.pdf [1 MB]

------------------------------------------1-----------------------------------------

, -1. . 1.pdf [213 KB]

------------------------------------------------------------------------------------

2006 .pdf [523 KB]

-----------------------------------------------------------------------------------

-. . 15.pdf [1 MB]

--------------------------------------------------------------------------------------

.pdf [105 KB]
-.pdf [128 KB]
-.pdf [85 KB]

-------------------------------------485 (-)------------------------------------

-4068 1.0. 2006 .pdf [339 KB]
+ 2.0. 2006 .pdf [1 MB]
+, -. 21.06.2020.pdf [3 MB]
-485 (-).pdf [266 KB]
+, -. 21.06.2020.pdf [1 MB]
-485 1.00. 2003 .pdf [464 KB]
+ 2.0. 2006 .pdf [1 MB]
-1.pdf [193 KB]
+ 2007 .pdf [266 KB]

----------------------------------------485 ---------------------------------------

-485 .pdf [202 KB]
-485 . 21.06.2020.pdf [266 KB]
-485 .pdf [308 KB]

-----------------------------------------------------------------------------------

-.pdf [193 KB]

------------------------------------------01----------------------------------------

--01.pdf [390 KB]
--01. 21.06.2020.pdf [1 MB]
--01.pdf [252 KB]
--01.pdf [261 KB]

-----------------------------------------------------------------------------------

- 2001 .pdf [208 KB]
-.pdf [180 KB]
- 1.pdf [217 KB]
- 2.pdf [234 KB]

-----------------------------------------------------------------------------------

-.pdf [93 KB]
- 2009 .pdf [770 KB]
-. 2. 05.09.2014.pdf [2 MB]
-. 3.pdf [1 MB]
- 1.pdf [689 KB]
- 2.pdf [1 MB]

------------------------------------------01----------------------------------------

--01.pdf [94 KB]

------------------------------------------24----------------------------------------

--24. 2.pdf [2 MB]

------------------------------------------------------------------------------------

1.pdf [451 KB]
2.pdf [476 KB]

------------------------------------------------------------------------------------

. 21.06.2020.pdf [861 KB]

-------------------------------------, -2-------------------------------------

, -2.pdf [169 KB]
.pdf [351 KB]
1.pdf [177 KB]
2.pdf [191 KB]
, -2. 21.06.2020.pdf [646 KB]

--------------------------------------------------------------------------------------

. 21.06.2020.pdf [611 KB]

------------------------------------ ------------------------------------


---------------------------------C-500 01059-508-1---------------------------------

-6040. 2. 15.03.2003 .pdf [191 KB]
C-500. 1. 10.03.2001 .pdf [2 MB]
C-500. 1. 10.03.2001 .pdf [874 KB]
-8000. 1. 15.03.2001 .pdf [2 MB]
-8001. 1. 10.03.2001 .pdf [4 MB]
C-500. 4. 10.05.2003 .pdf [5 MB]

---------------------------------------- 2001----------------------------------------

2. 2001. 2. 01.03.2003 .pdf [1 MB]
3. -8000. 3. 01.07.2005 .pdf [1 MB]
4. 2001. 2. 17.03.2003 .pdf [1 MB]
6. -8001. 2. 17.03.2003 .pdf [4 MB]
7. -6040. 3. 03.05.2006 .pdf [189 KB]
2001.pdf [3 MB]

--------------------------------------------------------------------------------------


---------------------------- ----------------------------

. 3.0. 2006 .doc [307 KB]

------------------------------------- -------------------------------------

. 2.doc [168 KB]

--------------------------------------10 . 1-------------------------------------

-10 . 1. . 3.12.pdf [284 KB]
-10 . 1. . 3.4. 2008 .pdf [556 KB]

--------------------------------------10 . 2-------------------------------------

-10 . 2. . 3.12.pdf [264 KB]
-10 . 2. . 3.4. 2008 .pdf [479 KB]

--------------------------------------10 . 3-------------------------------------

-10 . 3. . 3.3. 2008 .pdf [338 KB]
-10 . 3. . 4.2.pdf [385 KB]

--------------------------------------10 . 1-------------------------------------

-10 . 1. . 4.11.pdf [320 KB]
-10 . 1. . 4.3. 2009 .pdf [222 KB]

--------------------------------------10 . 2-------------------------------------

-10 . 2. . 4.11.pdf [339 KB]
-10 . 2. . 4.3. 2009 .pdf [235 KB]

-----------------------------------------2331----------------------------------------

-2331. . 1.4.pdf [676 KB]

-------------------------------------321 101-7------------------------------------

-321. . 2.2.pdf [144 KB]
-321. . 2.4.pdf [350 KB]
-321. . 2.5.pdf [190 KB]
-321. . 3.0.pdf [322 KB]
-321. . 3.1.pdf [325 KB]
-321. . 3.6.pdf [480 KB]

---------------------------------321 . 101-7-1--------------------------------

-321 . . . 1.8.pdf [537 KB]

-------------------------------------321 101-7------------------------------------

-321. . 1.1.doc [2 MB]
-321. . 1.2.pdf [184 KB]
-321. . 1.3.pdf [350 KB]
-321. . 2.0.pdf [415 KB]
-321. . 2.1.pdf [420 KB]
-321. . 2.6.pdf [553 KB]

-------------------------------------322 101-8------------------------------------

-322. . 2.2.pdf [491 KB]
-322. . 2.4.pdf [292 KB]
-322. . 2.5.pdf [454 KB]
-322. . 2.6.pdf [461 KB]
-322. . 2.7.pdf [573 KB]

-----------------------------------------3221----------------------------------------

-3221. . 2.3.pdf [634 KB]
-3221. . 3.0.pdf [594 KB]
-3221. . 4.0.pdf [406 KB]
-3221. . 6.0.pdf [779 KB]

------------------------------------3321 10210-1-----------------------------------

-3321. . 10.0.pdf [1 MB]
-3321. . 5.1.doc [780 KB]
-3321. . 5.3.pdf [573 KB]
-3321. . 6.0.pdf [1 MB]
-3321. . 6.3.pdf [705 KB]
-3321. . 7.0.pdf [692 KB]
-3321. . 8.1.pdf [702 KB]
-3321. . 9.8.pdf [1 MB]
-3321.pdf [547 KB]

-----------------------------------------361----------------------------------------

-361. . 2.3.pdf [241 KB]
-361. . 3.0.pdf [356 KB]

-------------------------------------361 . ------------------------------------

-361 . . . 2.2.pdf [717 KB]

-----------------------------------------3731----------------------------------------

-3731. . 1.3.pdf [687 KB]

--------------------------------------421 . -------------------------------------

-421 . 13.1.pdf [345 KB]
-421 .doc [588 KB]

--------------------------------------421 . -------------------------------------

-421 . 11.4.pdf [623 KB]
-421 .doc [615 KB]

-------------------------------------421 . ------------------------------------

-421 . . . 1.1.pdf [656 KB]

-------------------------------------421 . ------------------------------------

-421 . 13.2.pdf [504 KB]
-421 . 14.1.pdf [551 KB]
-421 . 14.2.pdf [557 KB]
-421 . 16.1.pdf [549 KB]

---------------------------------421 . 212-14--------------------------------

-421 . . . 4.3.pdf [1 MB]

--------------------------------421 . 2 212-11-------------------------------

-421 . 2. . 3.7.pdf [1 MB]

-------------------------------------42 212-13------------------------------------

-42. . 1.5.pdf [787 KB]

-------------------------------431 . 101-03-1R------------------------------

-431 . . . 1.3.pdf [952 KB]

-----------------------------------43 101-02-1----------------------------------

-43. . 1.4.pdf [776 KB]

-----------------------------------4511 513-05-----------------------------------

-4511. . 3.3. 21.06.2020.pdf [826 KB]
-4511. . 4.2.doc [683 KB]
-4511. . 4.3.pdf [701 KB]
-4511. . 4.5.pdf [469 KB]
-4511. . 4.6.pdf [395 KB]

------------------------------45 513-04------------------------------

-45 . . 1.2.pdf [726 KB]

------------------------------45 513-04------------------------------

-45 . . 1.2.pdf [733 KB]

------------------------------------45 513-04------------------------------------

-45. . 1.3.pdf [591 KB]

----------------------------------5 . 409-10---------------------------------

-5 . . . 1.doc [170 KB]
-5 . . . 2.doc [658 KB]
-5 . . . 8.0.pdf [687 KB]
-5 . . . 8.6.pdf [1 MB]

----------------------------------5 . 309-11---------------------------------

-5 . . . 1.doc [166 KB]
-5 . . . 2.doc [614 KB]
-5 . . . 8.0.pdf [677 KB]
-5 . . . 8.6.pdf [1 MB]

----------------------------------5 . 209-24---------------------------------

-5 . . . 1.doc [168 KB]
-5 . . . 2.doc [636 KB]
-5 . . . 8.0.pdf [661 KB]
-5 . . . 8.6.pdf [1 MB]

-------------------------------------511 409-25------------------------------------

-511. 3.doc [503 KB]
-511. 5.4.pdf [1 MB]
-511. 5.5.pdf [254 KB]
-511. 6.0.pdf [869 KB]
-511. 6.1.pdf [855 KB]

-------------------------------------512 409-42------------------------------------

-512. . 5.1.doc [1 MB]
-512. . 7.2.pdf [716 KB]
-512. . 7.8.pdf [868 KB]

-----------------------------------------5121----------------------------------------

-5121. . 1.2.pdf [659 KB]
-5121. . 2.3.pdf [622 KB]
-5121. . 3.0.pdf [619 KB]
-5121. . 5.3.pdf [921 KB]

--------------------------------5131 . 40910-1-------------------------------

-5131 . . . 1.1.doc [126 KB]
-5131 . . . 1.2.doc [137 KB]
-5131 . . . 10.5.pdf [941 KB]
-5131 . . . 11.0.pdf [481 KB]
-5131 . . . 7.2.pdf [722 KB]
-5131 . . . 8.0.pdf [1 MB]
-5131 . . . 9.1.pdf [892 KB]
-5131 . . . 9.3.pdf [759 KB]

--------------------------------5131 . 30910-1-------------------------------

-5131 . . . 1.1.doc [122 KB]
-5131 . . . 1.2.doc [133 KB]
-5131 . . . 10.5.pdf [883 KB]
-5131 . . . 8.1.pdf [1 MB]
-5131 . . . 9.3.pdf [713 KB]

-------------------------------------5131 . ------------------------------------

-5131 . . . 1.3.pdf [1 MB]

---------------------------------515 . 409-32--------------------------------

-515 . . . 1-1.doc [275 KB]
-515 . . . 1.doc [210 KB]
-515 . . . 2-1.doc [753 KB]
-515 . . . 5.11.pdf [700 KB]
-515 . . . 5.5.pdf [262 KB]

--------------------------------------515 . -------------------------------------

-515 . . . 2-1.doc [717 KB]
-515 . . . 5.10.pdf [683 KB]
-515 . . . 5.4.pdf [272 KB]

--------------------------------------515 . -------------------------------------

-515 . 2-1.doc [735 KB]

-----------------------------------------516----------------------------------------

-516. . 1.1.pdf [905 KB]
-516. . 1.3.pdf [911 KB]
-516. . 1.9.pdf [954 KB]

-----------------------------------------517----------------------------------------

-517. . 2.1.pdf [891 KB]

--------------------------------------517 . -------------------------------------

-517 . . . 1.1.pdf [962 KB]

---------------------------------522 . 409-24--------------------------------

-522 . 1 ( 1).doc [153 KB]
-522 . 1 ( 2).pdf [105 KB]

---------------------------------522 . 409-24--------------------------------

522 . 1.doc [2 MB]

-------------------------------------531 309-12------------------------------------

-531.doc [30 KB]
-531. 5.10.2004 .doc [236 KB]
-531. 1-1.doc [282 KB]
-531. 1-2.doc [283 KB]
-531. 1-3.doc [227 KB]

---------------------------------531 . 329-16--------------------------------

-531 . . 8.02.2005 .doc [836 KB]
-531 . . . 3.3.pdf [314 KB]
-531 . . . 4.7.pdf [756 KB]

---------------------------------531 . 309-28--------------------------------

-531 . . 8.02.2005 .doc [1 MB]
-531 . . . 4.3.pdf [381 KB]
-531 . . . 4.doc [1 MB]
-531 . . . 5.7.pdf [912 KB]

---------------------------------531 . 315-5--------------------------------

531 . . 8.02.2005 .doc [1 MB]
531 . . . 3.3.pdf [519 KB]
531 . . . 4.7.pdf [1002 KB]

-----------------------------------------551----------------------------------------

551. . 2.0.pdf [771 KB]
551. . 2.3.pdf [913 KB]
551. . 3.5.pdf [949 KB]

--------------------------------------6 409-11-------------------------------------

6. . 1.doc [151 KB]
6. . 6.2.pdf [657 KB]
6. . 6.6.pdf [1 MB]

-----------------------------------------612----------------------------------------

612. . 1.1.doc [674 KB]
612. . 1.5.pdf [542 KB]
612. . 1.8.pdf [649 KB]

------------------------------------6131 32910-1-----------------------------------

-6131. . 1.1.doc [436 KB]
-6131. . 1.2.doc [442 KB]
-6131. . 10.0.pdf [817 KB]
-6131. . 10.2.pdf [670 KB]
-6131. . 11.0.pdf [769 KB]
-6131. . 13.1.pdf [1 MB]
-6131. . 8.1.doc [1 MB]
-6131. . 9.2.pdf [809 KB]
-6131. . 9.4.pdf [743 KB]
-6131.doc [704 KB]

-------------------------------------621 415-2------------------------------------

-621. . 1 ( 1).doc [684 KB]
-621. . 1 ( 2).pdf [151 KB]
-621. 23.11.2004.doc [738 KB]
-621. . 7.1.doc [937 KB]
-621. . 7.4. 2008 .pdf [785 KB]
-621. . 8.6.pdf [1 MB]

-----------------------------------------641----------------------------------------

641. 2-0.pdf [682 KB]
641. 3-1.pdf [915 KB]

-----------------------------------------642----------------------------------------

642. 2-0.pdf [890 KB]
642. 2-2.pdf [883 KB]

--------------------------------------7 409-15-------------------------------------

-7. 1-1.doc [1 MB]
-7. 1.doc [1 MB]
-7. 2.doc [2 MB]

---------------------------------7 . 409-15-1--------------------------------

-7 . . 8.02.2005 .doc [850 KB]
-7 . . . 11.2.pdf [722 KB]
-7 . . . 11.7.pdf [993 KB]

---------------------------------7 . 409-15-2--------------------------------

-7 . . 8.02.2005 .doc [2 MB]
-7 . . . 9.2.pdf [735 KB]
-7 . . . 9.7.pdf [994 KB]

--------------------------------------7 . -------------------------------------

-7 . . . 1.4.pdf [834 KB]

-----------------------------------------712----------------------------------------

-712. 1-2.doc [3 MB]
-712. 2.doc [3 MB]

----------------------------------------712-0---------------------------------------

-712-0. . 4.2. 2010 .pdf [365 KB]
-712-0. . 7.5.pdf [566 KB]

----------------------------------712-1, -712-2---------------------------------

-712-1, -712-2. 8-0.doc [1 MB]
-712-1, -712-2. 9-5.pdf [865 KB]

----------------------------------712-4, -712-8---------------------------------

-712-4, -712-8. 5-0.doc [3 MB]
-712-4, -712-8. 6-5.pdf [870 KB]

-----------------------------------------713----------------------------------------

-713. . 1.0.pdf [806 KB]
-713. . 1.11.pdf [1 MB]
-713. . 1.3.pdf [751 KB]

--------------------------------------8 415-1-------------------------------------

-8. . 1-1.doc [738 KB]
-8. . 1-2.doc [2 MB]
-8. . 1.doc [743 KB]
-8. . 8.2.pdf [873 KB]
-8. . 9.3.pdf [1 MB]

--------------------------------------8 . -------------------------------------

-8 . . . 1.4.pdf [890 KB]

-----------------------------------------812----------------------------------------

-812, 1 . . 13.1.doc [3 MB]
-812 1 . . 2.1.doc [1 MB]
-812 4 . . 1.1.doc [1 MB]
-812 4 . . 3.0.doc [3 MB]

---------------------------------------812 Pro--------------------------------------

-812 Pro. . 3.2.pdf [4 MB]
-812 Pro. . 3.1.pdf [911 KB]
. -812 Pro.pdf [512 KB]

-----------------------------------------812----------------------------------------

-812. 3.0.pdf [211 KB]
-812. 5.1.pdf [204 KB]
-812. 5.2.pdf [208 KB]
-812. 1-0.doc [9 MB]

-----------------------------------------8131----------------------------------------

-8131. . 1.2.pdf [565 KB]

---------------------------------------814 Pro--------------------------------------

-814 Pro. . 2.3.pdf [1 MB]

-----------------------------------------821----------------------------------------

821. . 7.0. 2006 .doc [583 KB]
-821. . 4. 2005 .doc [755 KB]
-821. . 8.3.pdf [550 KB]
-821. . 8.6.pdf [547 KB]

-----------------------------------------822----------------------------------------

822. . 7.0. 2006 .doc [617 KB]
-822. . 4. 2005 .doc [848 KB]
-822. . 8.4.pdf [541 KB]

-----------------------------------------823----------------------------------------

-823. . 1.4.pdf [901 KB]

-----------------------------------------8231----------------------------------------

-8231. . 1.3.pdf [768 KB]

-----------------------------------------824----------------------------------------

-824. . 1.1.pdf [627 KB]

--------------------------------------831 . 2-------------------------------------

-831 2. 4.doc [2 MB]

--------------------------------------832 . 2-------------------------------------

-832 2. 5.0.doc [2 MB]

-----------------------------------------8531----------------------------------------

-8531. . 1.3.pdf [695 KB]

-----------------------------------------861----------------------------------------

-861 . . . 1.doc [430 KB]
-861. . 2.1. 2004 .doc [599 KB]
-861. . 3. 2005 .doc [555 KB]
-861. . 5.1. 2006 .doc [699 KB]
-861. . 6.3.pdf [494 KB]
-861. . 6.6.pdf [528 KB]

--------------------------------------863 . -------------------------------------

-863 . . . 1.8.pdf [635 KB]

--------------------------------------863 . -------------------------------------

-863 . . . 1.7.pdf [630 KB]

-----------------------------------------8731----------------------------------------

-8731. . 2.0.pdf [690 KB]

-----------------------------------------881----------------------------------------

-881. 4.1.pdf [1 MB]
-881. 4.2. 2009 .pdf [1 MB]

-----------------------------------------882----------------------------------------

-882. 1.2. 2006 .doc [1 MB]
-882. 3.1. 2011 .pdf [1 MB]

---------------------------------------8945 Pro--------------------------------------

-8945 Pro. . 3.1.pdf [791 KB]

--------------------------------------9 409-22-------------------------------------

9. . 1.doc [199 KB]
9. . 2-1.doc [654 KB]
9. . 3.5.pdf [644 KB]
9. . 3.9.pdf [884 KB]

-----------------------------------------941----------------------------------------

-941. 4.1. 2007 .pdf [222 KB]

-----------------------------------------942----------------------------------------

-942. . 1.2.pdf [308 KB]

-----------------------------------------983----------------------------------------

-983. . 1.1. 2007 .pdf [207 KB]
-983. . 1.4.pdf [153 KB]

-----------------------------------------984----------------------------------------

-984. . 2.0.pdf [210 KB]
-984. . 2.3.pdf [341 KB]

-----------------------------------------985----------------------------------------

-985. . 2.0.pdf [173 KB]

-----------------------------------------GSM----------------------------------------

-GSM. . 1.3.pdf [532 KB]

------------------------------------GSM ()-----------------------------------

-GSM (). . 1.2.pdf [625 KB]

-----------------------------------------LAN----------------------------------------

-LAN. . 1.2.pdf [494 KB]

----------------------------------------RS-485---------------------------------------

-RS-485. . 1.3.pdf [276 KB]

------------------------------------------Y-----------------------------------------

-Y. . 3.3. 2018 .pdf [3 MB]
-Y. . 3.4. 2020 .pdf [3 MB]
-Y. . 1.6.pdf [182 KB]
-Y. . 2.6.pdf [954 KB]
-Y. . 2.5.pdf [811 KB]

-----------------------------------------Z ----------------------------------------

-Z . . 2.1.pdf [362 KB]

----------------------------------------Z-2345---------------------------------------

-Z-2345. . 2.3.pdf [343 KB]

----------------------------------------Z-2745---------------------------------------

-Z-2745. . 3.2.pdf [652 KB]

----------------------------------------Z-2945---------------------------------------

-Z-2945. . 2.3.pdf [527 KB]

----------------------------------------Z-3145---------------------------------------

-Z-3145. . 1.1.pdf [322 KB]

----------------------------------------Z-3245---------------------------------------

-Z-3245. 1.0.pdf [335 KB]
-Z-3245. 2.4.pdf [313 KB]

-----------------------------------Z-3345 10210-5----------------------------------

-Z-3345. . 1.0.pdf [1 MB]
-Z-3345. . 2.4.pdf [600 KB]
-Z-3345. . 2.5.pdf [597 KB]
-Z-3345. . 2.6.pdf [600 KB]
-Z-3345. . 3.1.pdf [623 KB]
-Z-3345. . 4.1.pdf [812 KB]

----------------------------------------Z-3645---------------------------------------

-Z-3645. . 1.8.pdf [526 KB]

----------------------------------------Z-3745---------------------------------------

-Z-3745. . 1.2.pdf [685 KB]

-----------------------------------Z-4245 212-12----------------------------------

-Z-4245. . 1.0.pdf [822 KB]
-Z-4245. . 3.12.pdf [918 KB]
-Z-4245. . 3.2.pdf [571 KB]

---------------------------------Z-4345 101-01-1R--------------------------------

-Z-4345. . 2.12.pdf [869 KB]

----------------------------------Z-4545 513-03----------------------------------

-Z-4545. . 1.2.pdf [768 KB]
-Z-4545. . 2.3.pdf [521 KB]
-Z-4545. . 2.5.pdf [546 KB]
-Z-4545. . 2.6.pdf [553 KB]
-Z-4545. . 3.1.pdf [529 KB]
-Z-4545. . 3.9.pdf [758 KB]

------------------------------------Z-5145 . -----------------------------------

-Z-5145 . 1.0.pdf [959 KB]
-Z-5145 . 3.1.pdf [721 KB]

------------------------------------Z-5145 . -----------------------------------

-Z-5145 . 1.0.pdf [912 KB]
-Z-5145 . 3.1.pdf [679 KB]

-------------------------------Z-5145 . 40910-7------------------------------

-Z-5145 . . . 3.1.pdf [919 KB]

----------------------------------------Z-6145---------------------------------------

-Z-6145. . 1.2.pdf [611 KB]
-Z-6145. . 3.1.pdf [699 KB]
-Z-6145. . 4.1.pdf [896 KB]

------------------------------------Z-8745 . -----------------------------------

-Z-8745 . . . 2.2.pdf [469 KB]

----------------------------------------Z-8845---------------------------------------

-Z-8845. . 1.2.pdf [474 KB]
-Z-8845. . 1.3.pdf [675 KB]

------------------------------------Z-8845 . -----------------------------------

-Z-8845 . . . 2.1.pdf [631 KB]

---------------------------------------Z--------------------------------------

-Z. 1.5.pdf [8 MB]
-Z.pdf [938 KB]
-Z. . 2.0.pdf [1 MB]

---------------------------------------------------------------------------------

-. 1.1.pdf [700 KB]
-. 2.0.pdf [411 KB]
-. 2.2.pdf [449 KB]

-----------------------------------------------------------------------------------

-. . 1.2.pdf [421 KB]

--------------------------------4 010449-1-4-1-------------------------------

-4.doc [2 MB]

-----------------------------------------------------------------------------------

-. . 1, 2004 .doc [114 KB]
-. . 1, 2004 .doc [179 KB]
-931. . 3.1.pdf [80 KB]
-. . 11.4.pdf [897 KB]
-. . 6.0.pdf [388 KB]
-. . 7.3.pdf [1 MB]

-----------------------------------------------------------------------------------

- 02. 6.1.doc [1 MB]
-. 2, 2004 .doc [2 MB]
-. 2.doc [2 MB]
-. 7.1.pdf [792 KB]
-. 7.3.pdf [860 KB]
-. 7.4.pdf [838 KB]
-. 9.1.pdf [2 MB]
-. 9.2.pdf [680 KB]

----------------------------------------------------------------------------------

--. . 1.2. 2010 .pdf [2 MB]
--. . 2.3. 2011 .pdf [2 MB]
--. . 11.0.pdf [1 MB]
--. . 15.1.pdf [1 MB]
--. . 1.1.pdf [341 KB]
--. . 7.1.pdf [2 MB]
--. . 3.0, -- . 8.1.doc [1 MB]

---------------------------------------- --------------------------------------

-- . . 2.2.pdf [298 KB]

-----------------------------------------------------------------------------------

-. 1.2.pdf [546 KB]

-------------------------------------- 329-5-------------------------------------

-.doc [29 KB]
-.doc [467 KB]
-. . 1.doc [562 KB]
-. . 2.doc [1 MB]
-. . 4.1.doc [1 MB]
-. . 4.4. 2008 .pdf [686 KB]
-. . 5.4.pdf [622 KB]

--------------------------------------------------------------------------------

. 3.2. 2007 .doc [123 KB]

----------------------------------------01---------------------------------------

-01. 2.2.doc [76 KB]

----------------------------------------02---------------------------------------

-02. 2.0. 02.11.2007 .doc [356 KB]

--------------------------------------- -Y---------------------------------------

-Y. . 1.1.pdf [618 KB]

--------------------------------------- ----------------------------------------

-. . 2.0.pdf [204 KB]
-. . 3.3.pdf [437 KB]
-. . 4.doc [83 KB]

----------------------------------- ------------------------------------

-. . 2.2.pdf [408 KB]

--------------------------------------- ---------------------------------------

- -. . 5.1.pdf [1 MB]
- -. . 6.0.pdf [173 KB]
- -. . 6.1.pdf [173 KB]

------------------------------------- ---------------------------------------

--. . 7.0.pdf [2 MB]
--. . 7.1.pdf [393 KB]
--. . 9.2.pdf [716 KB]

--------------------------------------- ----------------------------------------

-. . 7.0.pdf [362 KB]
-. . 8.0.pdf [2 MB]
-. . 8.2.pdf [1 MB]

----------------------------------- - . -----------------------------------

- . . . 10.3.pdf [762 KB]

----------------------------------- - . -----------------------------------

- . . . 1.0.pdf [278 KB]
- . . . 1.1.pdf [302 KB]
- . . . 1.2.pdf [334 KB]
- . . . 1.3.pdf [333 KB]

----------------------------------------------------------------------------------


------------------------------------------2-----------------------------------------

-2 2002 .doc [6 MB]

---------------------- -2 2001 ----------------------

1. -2.dwg [567 KB]
10, 11. -2.doc [51 KB]
12. -2.dwg [134 KB]
13. -2.dwg [183 KB]
14. -2.dwg [137 KB]
15. -2.dwg [145 KB]
16, 17. -2.dwg [92 KB]
18. -2.dwg [231 KB]
19. -2.dwg [91 KB]
2. -2.dwg [304 KB]
3. -2.dwg [58 KB]
4. -2.dwg [260 KB]
5. -2.dwg [260 KB]
6. -2.dwg [59 KB]
7. -2.dwg [151 KB]
8. -2.dwg [76 KB]
9. -2.dwg [139 KB]
-2.doc [88 KB]

--------------------------------- -2 10.10.2000 ---------------------------------

1-8 -2 10.10.2000 .doc [58 KB]
-2 10.10.2000 .doc [308 KB]

--------------------------------------------------------------------------------


----------------------------------------------------------------------------------

. 24.03.2005 .pdf [225 KB]

------------------------------------------------------------------------------------

. 28.07.2006 .pdf [485 KB]

------------------------------------------------------------------------------------


--------------------------------------------1-------------------------------------------

-1. 04.2020 .pdf [498 KB]

--------------------------------------------2-------------------------------------------

-2. 04.2020 .pdf [512 KB]

--------------------------------------------3-------------------------------------------

-3. 04.2020 .pdf [491 KB]

-------------------------------------- 120--------------------------------------

120. 2018 .pdf [489 KB]

-------------------------------------- 350--------------------------------------

350. 2018 .pdf [493 KB]

-------------------------------------- 500--------------------------------------

500. 2018 .pdf [492 KB]

------------------------------------------------------------------------------------

. 05.2019 .pdf [514 KB]

---------------------------------------------------------------------------------

-. 12.2018 .pdf [395 KB]
-. v.3.18. 12.2018 .pdf [704 KB]

-----------------------------------------04----------------------------------------

-04. 08.2019 .pdf [3 MB]
-04. 08.2019 .pdf [398 KB]
-04. 08.2019 .pdf [2 MB]

-----------------------------------------------------------------------------------

-. 08.2019 .pdf [543 KB]

-------------------------------50, -100,-200,-300------------------------------

-50, -100,-200,-300. 06.2016 .pdf [228 KB]
-50, -100,-200,-300. v.2.17. 08.2018 .pdf [138 KB]
-50, -100,-200,-300. 05.2017 .pdf [406 KB]
-50, -100,-200,-300. v.2.17. 11.2019 .pdf [1 MB]

---------------------------------------------------------------------------------

-. V_3.. 2019 .pdf [423 KB]
-. 01.2020 .pdf [442 KB]

-----------------------------------------------------------------------------------

-. 08.2019 .pdf [5 MB]

-----------------------------------oa eoao-----------------------------------


------------------------------------------ForSec------------------------------------------

ForSec. 1.pdf [690 KB]
ForSec. 2.pdf [761 KB]
ForSec. 3.pdf [255 KB]

-------------------------------------------------------------------------------


------------------------------------16, -8-----------------------------------

-16, -8 2.0.pdf [582 KB]

-----------------------------------------3-----------------------------------------

-3-.doc [144 KB]
-3-.pdf [447 KB]

-----------------------------------------3-----------------------------------------

-3-.doc [233 KB]
-3-. 22.06.2020.pdf [563 KB]

--------------------------------4 01101249-4-1-------------------------------

-4 2.83.pdf [895 KB]

-----------------------------------------4-8----------------------------------------

-4-8 2.83.pdf [1012 KB]

---------------------------------------4---------------------------------------

-4-. 2.83.pdf [1 MB]
-4-. 2.89.pdf [926 KB]

-----------------------------------------4-----------------------------------------

-4-. 2.93.pdf [862 KB]

-----------------------------------------6-----------------------------------------

-6-. 1.12.pdf [540 KB]
-6-. 3.13.pdf [594 KB]

-----------------------------------------------------------------------------------

-.pdf [366 KB]

---------------------------------------128-------------------------------------

--128. 22.06.2020.pdf [772 KB]

------------------------------------------------------------------------------------


------------------------------------------01-----------------------------------------

-01 2001 .doc [595 KB]

-----------------------------------------01----------------------------------------

-01. 2003 .doc [593 KB]
-01. 22.06.2020.pdf [503 KB]

------------------------------------------02-----------------------------------------

-02. 2002 .doc [825 KB]
-02. 22.06.2020.pdf [748 KB]

-----------------------------------------02----------------------------------------

-02. 2004 .doc [1 MB]
-02. 22.06.2020.pdf [630 KB]

--------------------------------------------------------------------------------------

. 22.06.2020.pdf [311 KB]

--------------------------------, -, -, ---------------------------------

, -, -, -.doc [5 MB]

-------------------------------------------13------------------------------------------

-13 1991 .doc [766 KB]

------------------------------------------4-----------------------------------------

-4 1997 .doc [661 KB]
-4 1997 .doc [2 MB]

-----------------------------------------14----------------------------------------

-14 1999 .doc [530 KB]

-----------------------------------------14----------------------------------------

-14 2003 .doc [4 MB]

-----------------------------------------15----------------------------------------

-15 2000 .doc [1 MB]

----------------------------------------15---------------------------------------

-15. 2004 .doc [2 MB]
-15. 22.06.2020.pdf [1 MB]

-----------------------------------------16----------------------------------------

-16. 22.06.2020.pdf [862 KB]

-----------------------------------------12----------------------------------------

-12. 22.06.2020.pdf [1 MB]

-------------------------------------15, -15-01------------------------------------

-15, -15-01.doc [465 KB]

------------------------------------17, -17-01-----------------------------------

-17, -17-01.doc [332 KB]

------------------------------------------1,4-----------------------------------------

-1,4.doc [5 MB]

-----------------------------------------1,4 1----------------------------------------

-1,4 1 2005 .doc [616 KB]

------------------------------------------1,4-----------------------------------------

-1,4 2001 .doc [848 KB]

---------------------------------------------------------------------------------

-. 2017 .pdf [343 KB]
-. 1. 2017 .pdf [11 MB]
-. 2. 2017 .pdf [9 MB]
-. 2017 .pdf [15 MB]

---------------------------------------------------------------------------------

-. 2014 .pdf [101 KB]
-. 2018 .pdf [6 MB]
-. 22.06.2020.pdf [3 MB]
-. 22.06.2020.pdf [1 MB]
-. 22.06.2020.pdf [4 MB]
16.doc [212 KB]
1. 2001 .doc [790 KB]
1.. 2001 .doc [1 MB]
1.-HID. 2005 .doc [913 KB]
1.. 2005 .doc [3 MB]
2. 2001 .doc [532 KB]
2.. 2001 .doc [1 MB]
2.-HID. 2006 .doc [1 MB]
2.. 2006 .doc [3 MB]
4. 2001 .doc [1 MB]
40. 2005 .doc [1 MB]
4. 2001 .doc [1 MB]
41. 2001 .doc [1 MB]
42. 2001 .doc [2 MB]
5. 2001 .doc [1 MB]
50. 2005 .doc [527 KB]
50. 2006 .doc [869 KB]
5. 2006 .doc [1 MB]
8.doc [2 MB]
-. 2001 .doc [1 MB]
-. 2006 .doc [1 MB]
-. 2006 .doc [3 MB]
. 2001 .doc [455 KB]
.. 2005 .doc [321 KB]
-1. 2001 .doc [882 KB]
-2. 2001 .doc [412 KB]
-2. 2005 .doc [452 KB]
-4.doc [1 MB]
-6.8. 2006 .doc [438 KB]
1. 2001 .doc [317 KB]
1. 2006 .doc [383 KB]
. 2000 .doc [213 KB]
. 2001 .doc [349 KB]
.. 2006 .doc [2 MB]
1. 2001 .doc [628 KB]
1. 2006 .doc [3 MB]
1. 2001 .doc [978 KB]
2. 2005 .doc [2 MB]
. 2001 .doc [1 MB]
-. 2001 .doc [1 MB]
-.doc [398 KB]
-1. 2005 .doc [1 MB]

------------------------------------------------------------------------------------


------------------------------------------------------------------------------------

-GSM. 1.0.pdf [128 KB]
-18. 5.1.pdf [340 KB]
̖TCP-IP. 4.1.pdf [298 KB]
RS232. 4.2.pdf [289 KB]
. 3.1.pdf [371 KB]
40. 4.1.pdf [324 KB]
8. 4.1.pdf [261 KB]
2. 2.1.pdf [250 KB]
. 3.pdf [524 KB]
. 3.pdf [323 KB]
. . 2.1.pdf [591 KB]
. 2.4.pdf [1 MB]
-8, -16. 2.1.pdf [843 KB]
. 2.pdf [375 KB]

-----------------------------------------521----------------------------------------

-521. . 2.0.pdf [1 MB]

----------------------------------------5810---------------------------------------

-5810. . 1.1.pdf [1 MB]

---------------------------------------- 2+----------------------------------------

. 2.2 2+ . 3.6.pdf [555 KB]
. 3 V4.1 2+.pdf [432 KB]
. 4.1 2+ . . 4.0.pdf [601 KB]
. 4.2 2+ . . 4.1.pdf [653 KB]
2+ . 3.6.pdf [370 KB]
2+ V4.0.pdf [390 KB]

----------------------------------------- 4-----------------------------------------

4 ( V1.2, V1.0). 2.2.pdf [1012 KB]

---------------------------------------- 5----------------------------------------

. 5 -5. 1.pdf [245 KB]
. 5 -5. 2.1.pdf [357 KB]
5. 3.1.pdf [717 KB]
5. 3.pdf [535 KB]

----------------------------------------- 8-----------------------------------------

8. 3.2.pdf [650 KB]

---------------------------------------- 8----------------------------------------

8. 2.pdf [772 KB]
8. 4.11.pdf [580 KB]

-----------------------------------------24----------------------------------------

-24. 4.2.pdf [746 KB]

-----------------------------------------24----------------------------------------

-24. 3.2.pdf [998 KB]

----------------------------------------4GSM---------------------------------------

-4GSM. 1.3.13.pdf [1 MB]
-4GSM. 1.3.16.1.pdf [1 MB]

-----------------------------------------521----------------------------------------

-521. . 1.1.pdf [2 MB]

----------------------------------------5212---------------------------------------

-5212. . 1.0.pdf [2 MB]

------------------------------------5810 329-17-----------------------------------

-5810. . 1.1.pdf [668 KB]

-----------------------------------------591----------------------------------------

-591. . 1.0.pdf [2 MB]

--------------------------------------------------------------------------------------


----------------------------------------------------------------------------

RS-485RS-232.pdf [158 KB]
-.pdf [145 KB]
- .pdf [137 KB]
--. 2003 .pdf [1 MB]
-. 2004 .pdf [334 KB]
-. 2007 .pdf [312 KB]

-----------------------------------------------------------------------------


------------------------------- 0312149-1024-1-------------------------------

. 2004 .pdf [1 MB]

-------------------------------------------------------------------------------


-----------------------------------------NT----------------------------------------

. 1. -NT. 3.0. 2004 .doc [1 MB]
. 2004 .doc [5 MB]
. 2005 .doc [3 MB]
128-07. 2005 .doc [2 MB]
128-09. 2004 .doc [2 MB]
-1. 2004 .doc [5 MB]
. 2005 .doc [1 MB]
128-09. 2006 .doc [1 MB]
. 2006 .doc [1 MB]
51-02. 2002 .doc [1 MB]
51-04. 2002 .doc [4 MB]
-. 2004 .doc [1 MB]

----------------------------------------------------------------------------------

. 2005 .doc [11 MB]

----------------------------------------------------------------------------------


----------------------------------------------------------------------------------

.pdf [359 KB]
, , . 2005 .pdf [431 KB]

------------------------------------------------------------------------------------


------------------------------------------dHunt------------------------------------------

dHunt. 22.06.2020.pdf [1 MB]

-----------------------------------------24-40----------------------------------------

-24-40. 05.2010 .pdf [370 KB]
-24-40. 22.06.2020.pdf [894 KB]

-------------------------------------------6------------------------------------------

-6.pdf [367 KB]

------------------------------------------6-1-----------------------------------------

-6-1.pdf [386 KB]

-----------------------------------------6-24----------------------------------------

-6-24. 22.06.2020.pdf [821 KB]

------------------------------------------6-----------------------------------------

-6. 22.06.2020.pdf [418 KB]

------------------------------------------6-----------------------------------------

-6.doc [152 KB]

-----------------------------------------3----------------------------------------

-3.doc [51 KB]

------------------------5 407-15, -5-1 407-15-1-----------------------

-5, -5-1. 2004 .pdf [545 KB]
-5-1. 2008 .pdf [1 MB]
-5-1. 22.06.2020.pdf [723 KB]
-5. 2007 .pdf [520 KB]
-5. 22.06.2020.pdf [712 KB]
-5.doc [650 KB]

-----------------------------------5-2 407-15-2----------------------------------

-5-2. 08.2010 .doc [358 KB]
-5-2.pdf [490 KB]

-------------------------------------------12------------------------------------------

-12. 22.06.2020.pdf [864 KB]

---------------------------------------------------------------------------------

-.doc [50 KB]

-------------------------------------- --------------------------------------

. 2008 .pdf [133 KB]

------------------------------------------868-----------------------------------------

-868. 22.06.2020.pdf [1 MB]

------------------------------------------12-3-----------------------------------------

-12-3-01. 22.06.2020.pdf [396 KB]
-12-3. 22.06.2020.pdf [394 KB]

------------------------------------------------------------------------------------

.pdf [415 KB]

--------------------------------------------------------------------------------------

.doc [2 MB]

-------------------------------------------------------------------------------------

-.pdf [1 MB]

--------------------------------------------------------------------------------------

.doc [55 KB]

-----------------------------------------200----------------------------------------

-200. 2002 .doc [2 MB]

-------------------------------------------01------------------------------------------

-01.doc [153 KB]
-01. 2004 .pdf [342 KB]

------------------------------------------------------------------------------------

. 22.06.2020.pdf [724 KB]

-----------------------------------------01----------------------------------------

-01. 08.2008 .pdf [1 MB]
-01. 22.06.2020.pdf [1 MB]

-----------------------------------------02----------------------------------------

-02. 22.06.2020.pdf [1 MB]

-----------------------------------------------------------------------------------

-. 2010 .doc [2 MB]
-. 22.06.2020.pdf [1 MB]

----------------------------01, --02, --03--------------------------

--01(02, 03). 2009 .doc [2 MB]
--01(02, 03). 22.06.2020.pdf [1 MB]

---------------------------------------------------------------------------------

-. 22.06.2020.pdf [2 MB]

-------------------------------------------------------------------------------

-. 22.06.2020.pdf [2 MB]

----------------------------------------------------------------------------------

. 22.06.2020.pdf [1 MB]

--------------------------------------------------------------------------------

. 2008 .pdf [602 KB]
. 22.06.2020.pdf [926 KB]

----------------------------------------01---------------------------------------

-01. 22.06.2020.pdf [831 KB]

---------------------------------------500--------------------------------------

-500. 22.06.2020.pdf [99 KB]
-500. 22.06.2020.pdf [787 KB]

----------------------------------------------------------------------------------

. 22.06.2020.pdf [2 MB]

------------------------------------------1-----------------------------------------

-1. 22.06.2020.pdf [682 KB]

----------------------------------------- -----------------------------------------

. 2008 .pdf [268 KB]

-------------------------------------------------------------------------------------

-. 2008 .pdf [167 KB]

-------------------------------------------1------------------------------------------

-1. 2001 .doc [185 KB]
-1. 2009 .doc [350 KB]
-1. 22.06.2020.pdf [1 MB]
-1.pdf [369 KB]

--------------------------------------------10-------------------------------------------

-10. 1.pdf [297 KB]
-10. 2.pdf [708 KB]
-10. 22.06.2020.pdf [556 KB]

---------------------------------50, -100, -200, -300--------------------------------

-300. 2002 .doc [251 KB]
-50, -100, -200, -300. 2005 .pdf [400 KB]

--------------------------2, -2-1, -2-2, -2-3-------------------------

-2 (10). 22.06.2020.pdf [1 MB]
-2 (24). 22.06.2020.pdf [1 MB]
-2, -2-1, -2-2, -2-3. 2004 .pdf [398 KB]
-2. 2003 .doc [261 KB]
-2. 2009 .pdf [333 KB]
-2. 22.06.2020.pdf [1 MB]

--------------------------------------6 407-16-------------------------------------

-6.pdf [523 KB]

--------------------------------------7 207-8-------------------------------------

-7. 05.2010 .pdf [778 KB]

-----------------------------------------------------------------------------------

-.doc [604 KB]

---------------------------------------------------------------------------------

Operating manual Radiy BRK.pdf [116 KB]
-. 22.06.2020.pdf [981 KB]
-.doc [400 KB]

------------------------------------- 207-5------------------------------------

-. 05.2010 .pdf [269 KB]
-. 2004 .pdf [204 KB]
-. 22.06.2020.pdf [788 KB]
-.doc [222 KB]

------------------------------------------------------------------------------------

.pdf [261 KB]
. 22.06.2020.pdf [528 KB]
.pdf [519 KB]

------------------------------------------01-----------------------------------------

-01. 2010.pdf [722 KB]

------------------------------------------02-----------------------------------------

-02. 2011.pdf [727 KB]

------------------------------------------03-----------------------------------------

-03. 22.06.2020.pdf [776 KB]

------------------------------------, --01-----------------------------------

-, --01. 22.06.2020.pdf [960 KB]

------------------------------------02, --03----------------------------------

--02, --03. 22.06.2020.pdf [993 KB]
--02, --03.doc [2 MB]

-------------------------------------------150------------------------------------------

-150. 05.2010 .pdf [518 KB]

-------------------------------------------300------------------------------------------

-300. 05.2010 .doc [2 MB]
-300.doc [822 KB]
-300.pdf [231 KB]

-----------------------------------------24-800-----------------------------------------

24-800. 05.2010 .pdf [502 KB]

------------------------------------------------------------------------------------

. 2008 .doc [236 KB]

-----------------------------------------200----------------------------------------

-200. 22.06.2020.pdf [1 MB]

-------------------------------------------------------------------------------------

-. 22.06.2020.pdf [1 MB]

-------------------------------------------------------------------------------------

-. 22.06.2020.pdf [194 KB]

------------------------------------------------------------------------------------

. 2003 .doc [193 KB]
. 2005 .pdf [229 KB]

----------------------------------------------------------------------------------


----------------------------------------Contact ID----------------------------------------

Contact ID. 24.06.2020.pdf [479 KB]

---------------------------------------ETHERNET U-2---------------------------------------

ETHERNET U-2. 24.06.2020.pdf [716 KB]

-----------------------------------16- -24-2-7-----------------------------------

16- -24-2-7. 24.06.2020.pdf [580 KB]

------------------------------------16- 212-108------------------------------------

16-. 24.06.2020.pdf [140 KB]

---------------------------------16-.Ex 212-108.Ex---------------------------------

16-.Ex. 24.06.2020.pdf [159 KB]

----------------------------------16-. 435-7.----------------------------------

16-.. 24.06.2020.pdf [204 KB]

------------------------------------16- 513-16------------------------------------

16-. 24.06.2020.pdf [333 KB]

---------------------------------16-.Ex, 16--C.---------------------------------

16-.Ex, 16--C.. 24.06.2020.pdf [156 KB]

-------------------------------------16- 101-50-------------------------------------

16-. 24.06.2020.pdf [204 KB]

----------------------------------16-.Ex 101-50.Ex----------------------------------

16-.Ex. 24.06.2020.pdf [208 KB]

-----------------------------------------16------------------------------------------

16-. 2.pdf [375 KB]

-----------------------------------------16------------------------------------------

16-. 24.06.2020.pdf [292 KB]

----------------------------------------16-.Ex----------------------------------------

16-.Ex. 24.06.2020.pdf [173 KB]

-----------------------------------------16------------------------------------------

16-. 24.06.2020.pdf [287 KB]

------------------------------16-.Ex, 16-.Ex . 2------------------------------

16-.Ex, 16-.Ex . 2. 24.06.2020.pdf [288 KB]

---------------------------------16-, 16- . 2---------------------------------

16-, 16- . 2. 24.06.2020.pdf [397 KB]

------------------------------------------16-------------------------------------------

16-. 24.06.2020.pdf [269 KB]

-----------------------------------------16--3-----------------------------------------

16--3. 24.06.2020.pdf [159 KB]

---------------------------------------16--3.Ex---------------------------------------

16--3.Ex. 24.06.2020.pdf [158 KB]

----------------------------------------16-.Ex----------------------------------------

16-.Ex. 24.06.2020.pdf [275 KB]

---------------------------------------16-.Ex-C---------------------------------------

16-.Ex-C. 24.06.2020.pdf [286 KB]

-----------------------------------------16------------------------------------------

16-. 24.06.2020.pdf [223 KB]

----------------------------------------16------------------------------------------

16--. 24.06.2020.pdf [272 KB]

----------------------------------------16-.Ex----------------------------------------

16-.Ex. 24.06.2020.pdf [366 KB]

-----------------------------------------16------------------------------------------

16-. 2.0.pdf [528 KB]

----------------------------------------16-.Ex----------------------------------------

16-.Ex. 24.06.2020.pdf [520 KB]

------------------------------------- -------------------------------------

. 24.06.2020.pdf [344 KB]

-----------------------------------------------------------------------------------

-. 24.06.2020.pdf [705 KB]

---------------------------------------- 212-91----------------------------------------

212-91. . 4. 2010 .pdf [261 KB]

---------------------------------------- 212-92----------------------------------------

212-92. . 4. 2010 .pdf [256 KB]

----------------------------------------- 435-7-----------------------------------------

435-7. 24.06.2020.pdf [219 KB]

--------------------------------- 435-7 (-)---------------------------------

-. 24.06.2020.pdf [316 KB]

----------------------------------101-50 (-)----------------------------------

-. 24.06.2020.pdf [304 KB]

---------------------------------- 513-15, 101-15---------------------------------

-. 24.06.2020.pdf [375 KB]

--------------------------- . 2 513-15, 101-15 . 2--------------------------

- . 2. 24.06.2020.pdf [406 KB]

------------------------------------. 513-15.-----------------------------------

-.. 24.06.2020.pdf [381 KB]

--------------------------------------------1-------------------------------------------

-1. 24.06.2020.pdf [239 KB]

------------------------------01 01121-1-1-----------------------------

-01. 2010 .pdf [494 KB]

--------------------------------------7TC, -7-------------------------------------

-7TC, -7. . 7.pdf [259 KB]

-------------------------------------------7------------------------------------------

-7. 24.06.2020.pdf [272 KB]

--------------------------------------- . 3--------------------------------------

- . 3. . 2.pdf [289 KB]

--------------------------------------- . 4--------------------------------------

- . 4. 24.06.2020.pdf [267 KB]

--------------------------------------- . 6--------------------------------------

- . 6. 24.06.2020.pdf [392 KB]

-------------------------------------------------------------------------------------

-. . 4. 2010 .pdf [350 KB]

---------------------------------------------------------------------------------------

-. 24.06.2020.pdf [192 KB]

-------------------------------------------4------------------------------------------

-4. . 5.pdf [207 KB]

-------------------------------------------------------------------------------------

-. 24.06.2020.pdf [219 KB]

----------------------------------- -24-2-7----------------------------------

- -24-2-7. 24.06.2020.pdf [579 KB]

------------------------------------ Laser Test-----------------------------------

- Laser Test. . 2.03.pdf [848 KB]

---------------------------------, - . 2--------------------------------

-, - . 2. 24.06.2020.pdf [536 KB]

-----------------------------------------------------------------------------------

-. 24.06.2020.pdf [337 KB]

-----------------------------------------01---------------------------------------

--01. 24.06.2020.pdf [531 KB]

-----------------------------------------------------------------------------------

-. . 2.pdf [372 KB]

-----------------------------------------------------------------------------------

-. 24.06.2020.pdf [344 KB]

-------------------------------------- . 6-------------------------------------

- . 6. 24.06.2020.pdf [544 KB]

---------------------------------, - . 2--------------------------------

-, - . 2. 24.06.2020.pdf [396 KB]

-----------------------------------------------------------------------------------

-. 24.06.2020.pdf [493 KB]

--------------------------------------- . 3--------------------------------------

- . 3. . 1.00.pdf [501 KB]

-----------------------------------------------------------------------------------

-. 24.06.2020.pdf [455 KB]

-------------------------------------------------------------------------------------

-. 24.06.2020.pdf [1 MB]

--------------------------------------- . 2--------------------------------------

- . 2. . 1.02.pdf [926 KB]

--------------------------------------- . 4--------------------------------------

- . 4. . 1.02.pdf [968 KB]

------------------------------------------2-----------------------------------------

-2. . 1.02.pdf [1 MB]

------------------------------------------4-----------------------------------------

-4. . 1.03.pdf [935 KB]

----------------------------------- ( 513-17)----------------------------------

-. 24.06.2020.pdf [339 KB]

-----------------------------------------------------------------------------------

-. 24.06.2020.pdf [320 KB]

----------------------------------------------------------------------------------

--. 24.06.2020.pdf [321 KB]

--------------------------------------------------------------------------------

--. 24.06.2020.pdf [540 KB]

-----------------------------------------------------------------------------------

-. . 3.00.pdf [978 KB]

------------------------------- 8, 24-------------------------------

.doc [34 KB]
24.pdf [477 KB]
24. 2006 .pdf [506 KB]
24. . 5. 2010 .pdf [1 MB]
8. 2005 .pdf [489 KB]
8. . 5. 2010 .pdf [1 MB]
-1. 2003 .pdf [83 KB]
-1. 2004 .pdf [108 KB]
-1. 2003 .pdf [111 KB]
-2. 2004 .pdf [423 KB]

-------------------------------------- 32--------------------------------------

32. 2015 .pdf [1 MB]
32. 2013 .pdf [323 KB]
32. 2015 .pdf [1 MB]
32. . 3.1. 2015 .pdf [870 KB]

------------------------------------ 32.Ex------------------------------------

32.Ex. 2017 .pdf [1 MB]
32.Ex. 2017 .pdf [346 KB]
32.Ex. 2017 .pdf [1 MB]
32.Ex. 2017 .pdf [992 KB]

------------------------------------- 32-------------------------------------

32. 2013 .pdf [323 KB]
, SOAR-2 GSM 32 . A32M. 2018 .pdf [753 KB]
32. 2015 .pdf [1 MB]
32. . 3.1. 2015 .pdf [836 KB]

---------------------------------- -2 212-90----------------------------------

-2. . 7.pdf [433 KB]

------------------------------- -2. 212-90.-------------------------------

-2.. 24.06.2020.pdf [331 KB]

-------------------------------------------1------------------------------------------

-1. . 5. 2010 .pdf [258 KB]

--------------------------------------------1-------------------------------------------

-1. . 4. 2010 .pdf [251 KB]

-----------------------------------1, -2, -2 2----------------------------------

-1, -2, -2 2. . 6. 2014 .pdf [490 KB]

--------------------------------------------1-------------------------------------------

-1. 24.06.2020.pdf [348 KB]

------------------------------------------1.Ex-----------------------------------------

-1.Ex. 24.06.2020.pdf [253 KB]

--------------------------------------------2-------------------------------------------

-2. 24.06.2020.pdf [349 KB]

-------------------------------------------1------------------------------------------

-1. . 1.03. 2020 .pdf [893 KB]

-------------------------------------------90------------------------------------------

-90. . 2.1. 2019 .pdf [259 KB]

------------------------------ . 2 ( 513-15 . 2)-----------------------------

- . 2. 24.06.2020.pdf [410 KB]

---------------------------------, - ( 513-15)--------------------------------

-, -. 24.06.2020.pdf [379 KB]

------------------------- . 2, - . 2 ( 513-15)------------------------

- . 2, - . 2. 24.06.2020.pdf [194 KB]

--------------------------------, - ( 513-15)-------------------------------

-, - ( 513-15). 24.06.2020.pdf [220 KB]

---------------------------., -. ( 513-15.)--------------------------

-., -.. 24.06.2020.pdf [379 KB]

-------------------------------------------1------------------------------------------

-1. 24.06.2020.pdf [166 KB]

------------------------ϖ3, ϖ3 . 2, ϖ15, ϖ15 . 2------------------------

ϖ3, 3 . 2, 15, 15 . 2. 24.06.2020.pdf [595 KB]

--------------------------------------------------------------------------------------

. . 4. 2013 .pdf [536 KB]

-------------------------- 496 (), 496--------------------------

496. 24.06.2020.pdf [275 KB]
496.doc [36 KB]
496 () 496. 2004 .pdf [254 KB]
496 () 496. . 2. 2010 .pdf [495 KB]
.pdf [154 KB]
496(, ). 2014 .pdf [322 KB]
496(, ). 2004 .pdf [648 KB]
ETHERNET U-1. . 5. 2010 .pdf [560 KB]
496 () 496. 2005 .pdf [353 KB]
496 () 496. . 7. 2010 .pdf [681 KB]

-------------------------------------- 496--------------------------------------

496. . 2. 2018 .pdf [606 KB]
496. v. 51. 2019 .pdf [1 MB]
496 . 2016 .pdf [1 MB]
496 . v. 52. 2020 .pdf [1 MB]

-----------------------------------------------------------------------------

-. 24.06.2020.pdf [842 KB]